Song name
# A B C D E F G H I J K L M N O P Q R S T U V W X Y Z

Misc Unsigned Bands - Khodiack - Maghihintay Nalang tab

Elo!!
I'm DeKOnLy!!
First time to submit a tab w/ our own song
(Tuning: Standard)
(First Part)(Clean)
(Do this Adlib before the drumbeat)

e|----------------|----------------|--------------------------------------|
B|---5s7-5--4-5---|--5s7-5-4-5-----|--------------------------------------|
G|--4-----------4-|-4---------4s6--|--------------------------------------|
D|----------------|----------------|--------------------------------------|
A|----------------|----------------|--------------------------------------|
E|----------------|----------------|--------------------------------------|





Verse1:
   E             Bm
Siguro, Tama nga ang sinabi mo..
       C#m     
Naaalala mo pa ba..
        A
Nung tayo ay nagtalo..
   E              Bm
Siguro, Di mo na ako gusto..
       C#m
Nakahanap ka na ng lalake..
         A
Na Talagang mamahalin mo..

Refrain:
       Am
Pero sana naman..
       C
Sinabi mo ng diretso..
         Am
Para di na ako umasa na ..
          D
Ako nga ang mahal mo..

Chorus:
        E                     D
Pero, sinisigurado ko sa iyo.. 
 E                            D
Ang pangarap ko ay di magbabago..
 E                            D
Ikaw lang ang tangina mahal ko..
 E                               E
Maghihintay nalang..(2x) Ako sa iyo..

Verse 2:
E          Bm
Sigurado, Aaminin ko na sa iyo..
 C#m
Na magseselos ako..
   A
Kapag iba ang kayakap mo..
  E              Bm
Sigurado, sasabihin ko na sa iyo..
  C#m
Na maghihintay ako..
  A
Hanggang ako ay mahalin mo..

Repeat Refrain & Chorus

(Adlib Part II)(Distortion)
e|----------------|----------------|--------------------------------------|
B|--10s12-10-9-10-|-12-12-10-9-----|--------------------------------------|
G|-9--------------|----------------|-9s11--9-8-9--------------------------|
D|----------------|----------------|--------------------------------------|
A|----------------|----------------|--------------------------------------|
E|----------------|----------------|--------------------------------------|

e|----------------|----------------|--------------------------------------|
B|-12-10 9(5x)----|----------------|--------------------------------------|
G|----------------|-9s11-9-8-9-----|--------------------------------------|
D|----------------|----------------|--------------------------------------|
A|----------------|----------------|--------------------------------------|
E|----------------|----------------|--------------------------------------|

e|----------9-12--|-9--------------|--------------------------------------|
B|---10--12-------|---10-12(4x)----|----10s12-10-9-10---------------------|
G|-9--------------|----------------|--9---------------9(2x)---------------|
D|----------------|----------------|--------------------------------------|
A|----------------|----------------|--------------------------------------|
E|----------------|----------------|--------------------------------------|


Add us po!! www.friendster.com/khodiack

ym po!! starbuko03@yahoo.com!!!!!!



Pra ky "ANILORAC" .. :D


PLS RATE!! 
Tap to rate this tab
# A B C D E F G H I J K L M N O P Q R S T U V W X Y Z