Song name
# A B C D E F G H I J K L M N O P Q R S T U V W X Y Z

Misc Unsigned Bands - Yzrd - Chill tab

Transcribed by Ollie Baron
9/3/07
(deathmetalgod666@hotmail.com)


e|---------------------------------------------------------------------|
B|---------------------------------------------------------------------|
G|2---3---2----2--2--2-2-2---------2---3---2---3---5---5---5-5-5--5----| X2
D|-----------3-0--0--0-0-0---0---3-----------------3---3---3-3-3--3----|
A|---------------------------------------------------------------------|
E|---------------------------------------------------------------------|

e|---------------------------------------------------------------------|
B|---------------------------------------------------------------------|
G|------4----------------4---------4-------------------4---------------|
D|2--2--2----2--2--2--2--2---2--2--2----2--2--2--2--2--2---------------|
A|2--2-------2--2--2--2------2--2-------2--2--2--2--2------------------|
E|0--0-------0--0--0--0------0--0-------0--0--0--0--0------0-0---------|
                                                           . .(pm)
e|---------------------------------------------------------------------|
B|---------------------------------------------------------------------|
G|5--5-------5--5--------------5--5-------5--5-------------------------|
D|5--5-------5--5--------------5--5-------5--5-------------------------|
A|3--3-------3--3--------------3--3-------3--3------------5--3--2------|
E|-------5----------0--5--3-----------5----------0--5--8---------------|

e|--------------------------------------------------------------------------|
B|--------------------------------------------------------------------------|
G|--------------------------------------------------------------------------|
D|--------------------------------------------------------7----7--7--7--7--7|
A|2---3---2------2----2--2--2--2--2-------2---3---2---3---5----5--5--5--5--5|
E|------------3--0----0--0--0--0--0---0---3---------------------------------|

www.myspace.com/yzrd
Tap to rate this tab
# A B C D E F G H I J K L M N O P Q R S T U V W X Y Z