Song name
# A B C D E F G H I J K L M N O P Q R S T U V W X Y Z

Misc Unsigned Bands - Gonzaw - Escalpium tab

This is the intro of my song:
-b=bend
-/or\=slide

E------------------0--1----------------------|
B-1-3/6b---3-5\1---------3--3--1--1-1-1-3-0--|
G--------------------------------------------|  Repeat Twice
D--------------------------------------------|
A--------------------------------------------|
E--------------------------------------------|

E---0---0---1-1-0-1----1-1-0-1---1-1-0-1---|
B-1---1---1---------3----------3--------3--|
G------------------------------------------| Repeat 4 Times
D------------------------------------------|
E------------------------------------------|
A------------------------------------------|

E--------------------0-------------------------0-3b---|
B-1--3--3--1--3--3-3---1\0--1--3--3--1--3--3-3--------|
G-----------------------------------------------------| Repeat Twice
D-----------------------------------------------------|
E-----------------------------------------------------|
A-----------------------------------------------------|

E---0-1-0-------------0-----------------0---1---1---1---1-|
B-3-------1---1-3-1-0---1-1-0-1-3-1-0-1---3---3---3---3---|
G-----------4---------------------------------------------| Repeat 4 Times
D---------------------------------------------------------|
E---------------------------------------------------------|
A---------------------------------------------------------|
Tap to rate this tab
# A B C D E F G H I J K L M N O P Q R S T U V W X Y Z