Song name
# A B C D E F G H I J K L M N O P Q R S T U V W X Y Z

Misc Unsigned Bands - Strole - Zachs House tab

Help us improve GuitareTab! Take a short survey!
Song done by "STROLE"


         "Going to Zach's House--"      PART 1
E|-------------------------------------------------------------------------|
B|-------------------------------------------------------------------------|
G|-------------------------------------------------------------------------|
D|----5-------5------5--------7b/5/3---------------------------------------|
A|----5-X5----5-X5---5-X5-----7b/5/3---------------------------------------|
E|----3-------2------0-----------------------------------------------------|
             
             --Keep hand farthest right on strings--




                   "GOING TO ZACH'S HOUSE!!--"    PART 2
E|-------------------------------------------------------------------------|
B|-------------------------------------------------------------------------|
G|-------------------------------------------------------------------------|
D|------5----4---3---4-----------------------------------------------------|
A|------5----4---3---4---X2------------------------------------------------|
E|------3----2---0---2-----------------------------------------------------|


                    --Go back to part 1--


            SOLO
E|-------------------------------------------------------------------------|
B|-------------------------------------------------------------------------|
G|-------------------------------------------------------------------------|
D|-------5557b5---44444540----44444540-------------------------------------|
A|-------------------------------------------------------------------------|
E|---------------------------------------3/5/8b----------------------------|

                 --Go back to part 2--


  Well thats it, enjoy check out the band's myspace...


                -BudFrancis
Related for Strole - Zachs House tab