Song name
# A B C D E F G H I J K L M N O P Q R S T U V W X Y Z

Misc Unsigned Bands - Gonzaw - Rainium tab

This is the intro of my song:

E-----------------------------------------0-----0-----1-0-----0---1-1-0---0-------|
B-----0--0-----0---0-----0------------0-----3-1---3-1-----1-3---1-------1---3---3-|
G---0------2-3---2---2-2---2-2------0---2-------------------------------------5---|
D-3-------------------------------3-----------------------------------------------|
A---------------------------------------------------------------------------------|
E---------------------------------------------------------------------------------|

Repeat 4 Times

E-0-0-1-1-----------0-1-0-0-1-1-1---------------|
B-3-3-3-3-3---0-3-0-----3-3-3-3-3-3-1-0-3-1-3-2-|
G-4-4-4-4-4-2-----------4-4-4-4-4-4-------------|
D-----------------------------------------------|
A-----------------------------------------------|
E-----------------------------------------------|

Repeat 6 Times
Tap to rate this tab
# A B C D E F G H I J K L M N O P Q R S T U V W X Y Z