Song name
# A B C D E F G H I J K L M N O P Q R S T U V W X Y Z

Misc Unsigned Bands - Gonzaw - Estanium tab

This is it (it may be slighty different from the guitar pro version, because pretty much 
guitar pro version is impossible to play, unless you have 5 inches fingers):

x=mute note
b=bend
\or/=slide

Intro:

E-2-2---2--1-7---2-2---0--0---|
B-3-3-x-5--4-10--3-3-x-7--3-0-|
G-2-2-x-4--3-9---2-2-x-4--2-6-|
D-0-0-x-5--4-10--0-0-x-5--3-4-|
A-----x--------------x------5-|
E-----------------------------|

E-2-2---2--1-7---2-2-----------------------|
B-3-3-x-5--4-10--3-3-x-----7-3-5-3-5-0-3-0-|
G-2-2-x-4--3-9---2-2-x-5-7-----------------|
D-0-0-x-5--4-10--0-0-x---------------------|
A-----x--------------x---------------------|
E------------------------------------------|

Repeat 4 times

Then it goes like this:

E-2------x-7b-----------1------x---------------|
B-3----x-x--------------2----x-x---------------|
G-2----x-x-------5-7-3--1----x-x-7\5-5-5-5-7-4-| Repeat
D-0----x-x-------------------x-x---------------|
A-----------------------4----------------------|
E----------------------------------------------|
Tap to rate this tab
 
# A B C D E F G H I J K L M N O P Q R S T U V W X Y Z