Song name
# A B C D E F G H I J K L M N O P Q R S T U V W X Y Z

Misc Unsigned Bands - Fate - Tragic Losses tab

Alright well, i put a youtube video of myself playing this song, and no one really asked 
to tab it, so im gunna tab it because no one on here has tabbed a fate song, so here it iss

(0:00-0:06)
Feedback, and drum beat

(0:06-0:33)
D|------------------------------|
A|------------------------------|
F|------------------------------|
C|--00000-00000--0-0-00000------|x
G|--00000-00000--0-0-00000------|
C|--00000-00000--0-0-00000------|
    ..... .....  . . .....

(0:34-0:59)
D|-------------------------------|
A|-------------------------------|
F|-------------------------------|
C|-------------------------------|x10
G|-------------------------------|
C|-0000-3p1-0000-3p1-00-3p1------|
   ....     ....     ..

(1:00-1:01)
F|-----------------------|
A|-----------------------|
D|---6666666666666666----|
C|---5555555555555555----|x1
G|---4444444444444444----|
C|-----------------------|

Breakdown (1:02-1:05)
F|---------------------------------------|
A|---------------------------------------|
D|---------------------------------------|
C|--0-3-2-121-0-3-2-1-2------------------|x1
G|--0-3-2-121-0-3-2-1-2------------------|
C|--0-3-2-121-0-3-2-1-2------------------|
    . . . ... . . . . .

(1:06-1:08)
F|-----------------------|
A|-----------------------|
D|---6666666666666666----|
C|---5555555555555555----|x1
G|---4444444444444444----|
C|-----------------------|

(1:09-1:12)
F|---------------------------------------|
A|---------------------------------------|
D|---------------------------------------|
C|--0-3-2-121-0-3-2-1-2------------------|x1
G|--0-3-2-121-0-3-2-1-2------------------|
C|--0-3-2-121-0-3-2-1-2------------------|
    . . . ... . . . . .

(1:13-1:15)
F|-----------------------|
A|-----------------------|
D|---6666666666666666----|
C|---5555555555555555----|x1
G|---4444444444444444----|
C|-----------------------|


(1:16-1:32)
F|---------------------------------------|
A|---------------------------------------|
D|---------------------------------------|
C|--0-3-2-121-0-3-2-1-2------------------|x4
G|--0-3-2-121-0-3-2-1-2------------------|
C|--0-3-2-121-0-3-2-1-2------------------|
    . . . ... . . . . .


Hella easy, but sooo sick at the same time
Got any questions? Message me on myspace
www.myspace.com/codsterrrrr<----thats my link
PEACE
Tap to rate this tab
# A B C D E F G H I J K L M N O P Q R S T U V W X Y Z