Song name
# A B C D E F G H I J K L M N O P Q R S T U V W X Y Z

Misc Unsigned Bands - Straterra - Warphene tab

x4                                                            (1)
-----------------------------------------------------------------|
-----------------------------------------------------------------|
-----------------------------------------------------------------|
-----------------------------------------------------------------|
-----5-8-5-4-7-4-5-8-5-4-7-4-7-10-7-6-9-6-7-10-7-6-9-7-----------|
-----------------------------------------------------------------|
x6

                                                              (2)
-----------------------------------------------------------------|
-----------------------------------------------------------------|
-----------------------------------------------------------------|
-----------------------------------------------------------------|
--0---------------1---------4-------0-----------0-1-0-1----------|
--0-0-0-0-0-0-0-0-1-1-0-1-3-4-3-1-3-0-0-0-0-0-0-0-1-0-1----------|


g1x6                                                           (3)
-----------------------------------------------------------------|
-----------------------------------------------------------------|
-----------------------------------------------------------------|
------------------5-------5---5----------------------------------|
--0-------0---1-0-3-------3---3-0-1-------1---3-1-0--------------|
--0-0-0-0-0-0-1-0---0-0-0---0---0-1-1-1-1-1-1-3-1-0--------------|


g2x6                                                           (3)
-----------------------------------------------------------------|
-----------------------------------------------------------------|
-----------------------------------------------------------------|
--7-------7---8-7-5-------5---5-7-8-------8---10-8-7-------7-----|
--5-------5---6-5-3-------3---3-5-6-------6---8--6-5-------5-----|
----0-0-0---0-------0-0-0---0-------0-0-0---0--------0-0-0-------|
repeat 2-3 then go into 4 x8


g1                                                            (4)
-----------------------------------------------------------------|
-----------------------------------------------------------------|
-----------------------------------------------------------------|
----------------------------------5------5-----5------5----------|
------0------0------0------0------3------3-----3------3----------|
--000-00-000-00-000-00-000-00-333-33-333-3-333-33-333-33---------|

g2                                                            (4)
-----------------------------------------------------------------|
-----------------------------------------------------------------|
-----------------------------------------------------------------|
-----888777-------888777----5-6-5---5-6-5---5-6-5---5-6-5--------|
--555------888-555------888-3-----6-3-----6-3-----6-3-----6------|
-----------------------------------------------------------------|
then repeat 2-3 once more
Tap to rate this tab
 
# A B C D E F G H I J K L M N O P Q R S T U V W X Y Z