Song name
# A B C D E F G H I J K L M N O P Q R S T U V W X Y Z

Misc Unsigned Bands - Detached - Numbers tab

Detached-Numbers
Standard Tuning
(eadgbe)


Intro
Guitar 1
e|------------------------------------------|
B|------------------------------------------|
G|------------------------------------------|
D|--222h422h422h42h4-4--666h866h866h86h8-8--| 2X
A|--222--22--22--2------666--66--66--6------|
E|------------------------------------------|
    ................ .  ................ .

Guitar 2
e|------------------------------------------|
B|------------------------------------------|
G|--444444444444444444----------------------|
D|--444444444444444444--666666666666666666--| 2X
A|--222222222222222222--666666666666666666--|
E|----------------------444444444444444444--|
    ..................  ..................                 


Chorus
Guitar 1
e|--------------------------------------------|
B|--------------------------------------------|
G|--444s1111111111--888s15-151515s16-16-1515--|
D|--xxxsx-xx-xxxx---xxxsxx-xxxxxxsxx-xx-xxxx--| 4x
A|--222s9-99-9999---666s13-131313s14-14-1313--|
E|--------------------------------------------|

Guitar 2
e|--------------------------------------------|
B|--------------------------------------------|
G|--44444444444444----------------------------|
D|--44444444444444--666666666666666666666666--| 4X
A|--22222222222222--666666666666666666666666--|
E|------------------444444444444444444444444--|
            

Verse 1
Guitar 1
e|------------------------------------------|
B|------------------------------------------|
G|------------------------------------------|
D|--222h422h422h42h4-4--666h866h866h86h8-8--| 2X
A|--222--22--22--2------666--66--66--6------|
E|------------------------------------------|
    ................ .  ................ .

Guitar 2
e|------------------------------------------|
B|------------------------------------------|
G|--444444444444444444----------------------|
D|--444444444444444444--666666666666666666--| 2X
A|--222222222222222222--666666666666666666--|
E|----------------------444444444444444444--|
    ..................  ..................    


Guitar 1
e|------------------------------|
B|------------------------------|
G|----------8s11--------8-6s4---|
D|--222-2~--xsx--222-2~-x-xsx---| 2X
A|--222-2~--6s9--222-2~-6-4s2---|
E|------------------------------|
    ...          ...

Guitar 2
e|------------------------------|
B|------------------------------|
G|--222-2~-------222-2~---------|
D|--222-2~-6666--222-2~-6666----| 2X
A|---------6666---------6666----|
E|---------4444---------4444----|
    ...          ...

Refrain

fortin one fortin tri twenifyv..(hehe)
Guitar 1
e|------------------------------------------|
B|------------------------------------------|
G|------------------------------------------|
D|--222h422h422h42h4-4--666h866h866h86h8-8--| 2X
A|--222--22--22--2------666--66--66--6------|
E|------------------------------------------|
    ................ .  ................ .

Guitar 2
e|------------------------------------------|
B|------------------------------------------|
G|--444444444444444444----------------------|
D|--444444444444444444--666666666666666666--| 2X
A|--222222222222222222--666666666666666666--|
E|----------------------444444444444444444--|
di ku alam ung sa adlib..(hehe)

ahm, eto po ay inimbento ko lang, pero siguro magkaka idea po kau d2 sa tab ko na to.
pangatlong tab ko po ito baka mga 36.13% tama yan..
tinggelbear@yahoo.com.ph
orencio-

Tap to rate this tab
 
# A B C D E F G H I J K L M N O P Q R S T U V W X Y Z