Song name
# A B C D E F G H I J K L M N O P Q R S T U V W X Y Z

Misc Unsigned Bands - Accept This Confession - Lyrical Confession tab

---------------------------------------------------------------------
Lyrical Confession by Accept This Confession


Tabbed by: EdMedMoped
Email: edmedmoped@yahoo.co.uk

e|---------------------|
B|---------------------|
G|---------------------|
D|---------------------|
A|--9-5-7-4-9-5-7-4----|
E|---------------------|

e|-----------------------------------------------------------|---|x3
B|---------------------------------------------------------------|  for
G|---------------------------------------------------------------|  each
D|-11--7--9--6---------------------------------------------------|  one)
A|-9---5--7--4---------------------------------------------------|
E|---------------------------------------------------------------| (x2)

e|------------|
B|------------|
G|------------|
D|-11---------|
A|-9----------|
E|------------|

Here’s My Lyrical Confession

e|-----------------------------------------------------------|---|x3
B|---------------------------------------------------------------|  for
G|---------------------------------------------------------------|  each
D|-11--7--9--6---------------------------------------------------|  one)
A|-9---5--7--4---------------------------------------------------|
E|---------------------------------------------------------------|

Here’s My Lyrical Possesion

e|-----------------------------------------------------------|---|x3
B|---------------------------------------------------------------|  for
G|---------------------------------------------------------------|  each
D|-11--7--9--6---------------------------------------------------|  one)
A|-9---5--7--4---------------------------------------------------|
E|---------------------------------------------------------------|

Here’s My Lyrical Depression

e|-----------------------------------------------------------|---|x3
B|---------------------------------------------------------------|  for
G|---------------------------------------------------------------|  each
D|-11--7--9--6---------------------------------------------------|  one)
A|-9---5--7--4---------------------------------------------------|
E|---------------------------------------------------------------|

Not a Material Possesion

e|-----------------------------------------------------------|---|x3
B|---------------------------------------------------------------|  for
G|---------------------------------------------------------------|  each
D|-11--7--9--6---------------------------------------------------|  one)
A|-9---5--7--4---------------------------------------------------|
E|---------------------------------------------------------------|


e|-------------------------------------------------------------|
B|-------------------------------------------------------------|
G|-------------------------------------------------------------|
D|--4-4-4-6-7--------------------------------------------------|
A|--------------4-4-4-5-7--------------------------------------|
E|-------------------------------------------------------------|x2


But are you gonna listen to me?
Or do I really have to plea?
Dry your tears.
As we throw down spears.

e|-----------------------------------------------------------|---|x3
B|---------------------------------------------------------------|  for
G|---------------------------------------------------------------|  each
D|-11--7--9--6---------------------------------------------------|  one)
A|-9---5--7--4---------------------------------------------------|
E|---------------------------------------------------------------| (x3)

e|-----------------------------------------------------------|
B|-----------------------------------------------------------|
G|-----------------------------------------------------------|
D|-11-11-11-7-7-7-9-4-11-------------------------------------|
A|-9--9--9--5-5-5-7-2-9--------------------------------------|
E|-----------------------------------------------------------| (x2)


Solo…

e|-------------------------------------------------------------|
B|-------------------------------------------------------------|
G|-------------------------------------------------------------|
D|--4-4-4-------------------------7-7-7-6-6-6------------------|
A|--------4-4-4--5---5-5-5-5--------------------7---7-7-7-7----|
E|-------------------------------------------------------------|

e|-------------------------------------------------------------|
B|-------------------------------------------------------------|
G|-------------------------------------------------------------|
D|--4-4-4-------------------------7-7-7-6-6-6------------------|
A|--------4-4-4--5---5-5-5-5--------------------7~-------------|
E|-------------------------------------------------------------|

Break…
Distorted

e|-------------------------------------------------------------|
B|-------------------------------------------------------------|
G|--6-6-6-------------------------9-9-9-8-8-8------------------|
D|--4-4-4-6-6-6--7---7-7-7-7------7-7-7-6-6-6---9-------99999--|
A|--------4-4-4--5---5-5-5-5--------------------7-------77777--|
E|-------------------------------------------------------------| (x3)


e|-------------------------------------------------------------|
B|-------------------------------------------------------------|
G|--6-6-6-------------------------9-9-9-8-8-8------------------|
D|--4-4-4-6-6-6--7---7-7-7-7------7-7-7-6-6-6---9--------------|
A|--------4-4-4--5---5-5-5-5--------------------7--------------|
E|-------------------------------------------------------------|

Slowly

e|-----------------------------------------------------------| (x3
B|-----------------------------------------------------------|  for
G|-----------------------------------------------------------|  each
D|-11--7--9--6-----------------------------------------------|  one)
A|-9---5--7--4-----------------------------------------------|
E|-----------------------------------------------------------|

e|-----------------------------------------------------------|
B|-----------------------------------------------------------|
G|-----------------------------------------------------------|
D|-11-11-11-7-7-7-9-9-9-4~-----------------------------------|
A|-9--9--9--5-5-5-7-7-7-2~-----------------------------------|
E|-----------------------------------------------------------|

Distorted
e|-----------------------------------------------------------|---|x3
B|---------------------------------------------------------------|  for
G|---------------------------------------------------------------|  each
D|-11--7--9--6---------------------------------------------------|  one)
A|-9---5--7--4---------------------------------------------------|
E|---------------------------------------------------------------| (x4)

(Screaming) Here’s My Lyrical Confession!

e|-----------------------------------------------------------| (x3
B|-----------------------------------------------------------|  for
G|-----------------------------------------------------------|  each
D|-11--7--9--6-----------------------------------------------|  one)
A|-9---5--7--4-----------------------------------------------|
E|-----------------------------------------------------------|

(Screaming) Here’s My Lyrical Possesion!

e|-----------------------------------------------------------|---|x3
B|---------------------------------------------------------------|  for
G|---------------------------------------------------------------|  each
D|-11--7--9--6---------------------------------------------------|  one)
A|-9---5--7--4---------------------------------------------------|
(Screaming) Here’s My Lyrical Depression!

e|-----------------------------------------------------------| (x3
B|-----------------------------------------------------------|  for
G|-----------------------------------------------------------|  each
D|-11--7--9--6-----------------------------------------------|  one)
A|-9---5--7--4-----------------------------------------------|
E|-----------------------------------------------------------|

(Screaming) Not a Material Possesion!

e|-----------------------------------------------------------|
B|-----------------------------------------------------------|
G|-----------------------------------------------------------| (Fades
D|-11-11-11-7-7-7-9-4-11-------------------------------------| Off
A|-9--9--9--5-5-5-7-2-9--------------------------------------| Track)
Tap to rate this tab
 
# A B C D E F G H I J K L M N O P Q R S T U V W X Y Z