Song name
# A B C D E F G H I J K L M N O P Q R S T U V W X Y Z

Misc Unsigned Bands - Why Die For Me - Hiring Snoop Dogg As A Private Investigator Probely Wasnt My Greatest Idea tab

Why Die For Me?- Hiring Snoop Dogg....
tabbed by carter-anothervivacarter@yahoo.com


this is played in drop c but ill tab in in d too


E|---------------------------------------------| 
B|---------------------------------------------|
G|---------------------------------------------| 
D|-99------9--99------9-99------9--55557777----|
A|-99-9-10----99-9-10---99-9-10----55557777----|
D|-99---------99--------99---------55557777----|



they way they play it:
D|------------------------------------------| 
A|------------------------------------------|
F|------------------------------------------| 
C|-77-----8--77-----8-77-----8--33335555----|
G|-77-7-8----77-7-8---77-7-8----33335555----|
C|-77--------77-------77--------33335555----|
Tap to rate this tab
 
# A B C D E F G H I J K L M N O P Q R S T U V W X Y Z