Guitaretab - guitar tabs
Song name
# A B C D E F G H I J K L M N O P Q R S T U V W X Y Z

Misc Unsigned Bands - The Loose Screws - Scalded Dog tab

This is a song I wrote in the style of the classic blues/rock instrumentals for my band. 
is worked out to the best of my ability. I'll try to get a sound file hosted, but I 
promise anything. Have fun with it if you can work out the timing.


----------------------------------------------------------------------------
	               Scalded Dog - The Loose Screws
----------------------------------------------------------------------------
Tabbed by: Nobody Special
Email: N/A

Tuning: Standard
[ Tab from: http://www.guitaretab.com/m/misc-unsigned-bands/86482.html ]
Intro
e|---------------------------------------------------------------------------|
B|---------------------------------------------------------------------------|
G|--------------------------------------------57p5--------------------------|
D|-7-7-7p5-----7-7-7p5-----7-7-7p5--------5h7--------------------------------|
A|---------7-----------7-----------7-5h7------------------------------------|
E|---------------------------------------------------------------------------|
Intro 2
e|---------------------------------------------------------------------------|
B|---------------------------------------------------------------------------|
G|---------------------------------------------------------------------------|
D|-7-7-7p5-----7-7-7p5-----7-7-7p5-------------------------------------------|
A|---------7-----------7-----------7-7p5------------------------------------|
E|----------------------------------------8-5--------------------------------|
Intro 3
e|---------------------------------------------------------------------------|
B|---------------------------------------------------------------------------|
G|------------------------------------5-5--7-7-------------------------------|
D|-7-7-7p5-----7-7-7p5-----7-7-7p5----5-5--7-7-------------------------------|
A|---------7-----------7-----------7----------------------------------------|
E|---------------------------------------------------------------------------|
Riff 1
e|---------------------------------------------------------------------------|
B|---------------------------------------------------------------------------|
G|---------------------------------------------5-----------------------------|
D|-7-7-7p5-----7-7-7p5-----7-7-7p5---------5h7-------------------------------|
A|---------7-----------7-----------7---5h7-----------------------------------|
E|---------------------------------------------------------------------------|
Riff 2
e|---------------------------------------------------------------------------|
B|---------------------------------------------------------------------------|
G|---------------------------------------------------------------------------|
D|-7-7-7p5-----7-7-7p5-----7-7-7p5-------------------------------------------|
A|---------7-----------7-----------7---5h7-----------------------------------|
E|-----------------------------------------8-5-------------------------------|
Riff 3
e|---------------------------------------------------------------------------|
B|---------------------------------------------------------------------------|
G|----------------------------------------------5h7p5------------------------|
D|-7-7-7p5-----7-7-7p5-----7-7-7p5---------5tr7-------7p5--------------------|
A|---------7-----------7-----------7---5h7----------------7p5----------------|
E|------------------------------------------------------------8p5-5b---------|
Riff 4
e|---------------------------------------------------------------------------|
B|---------------------------------------------------------------------------|
G|---------------------------------------------------------------17----------|
D|-19-19-19p17-----19-19-19p17------19-19-19p17------------17h19-------------|
A|-------------19--------------19---------------19---17h19-------------------|
E|---------------------------------------------------------------------------|
Riff 5
e|---------------------------------------------------------------------------|
B|---------------------------------------------------------------------------|
G|---------------------------------------------------------------------------|
D|-19-19-19p17-----19-19-19p17------19-19-19p17------------------------------|
A|-------------19--------------19---------------19---17h19-------------------|
E|---------------------------------------------------------20-17-------------|

Solo
e|------------------------------------------------------------------17tr20---|
B|-----------------------------------------------------------17tr20----------|
G|--------------------------------------------19p17-------17-----------------|
D|-----17h19-----------19b-19b-19b-19b-19b-17-------17-19--------------------|
A|-19b-------19p17-17b-------------------------------------------------------|
E|---------------------------------------------------------------------------|
Solo (cont.)
e|-20b-20b-20p17-------17-----------------------------------------------------|
B|---------------20p17----20--------------------------------------------------|
G|---------------------------19p17--------------------------------------------|
D|---------------------------------17h19p17-17\15/17-19b----------------------|
A|-------------------------------------------------------17b-19b--------------|
E|---------------------------------------------------------------20-1717br\5-|
Solo (cont.)
e|---------------------------------------------------------------------------|
B|---------------------------------------------------------------------------|
G|---------------------------------------------------------------------5-7-7~|
D|---------------5-7brp5---------------------------------5-5---7p5-7p5-----7~|
A|----------5--7-----------5---3b----------------5p3-5p3---------------------|
E|-5~~~--8------------------------5/8-8~~~~~~~~~-----------------------------|
Solo (cont.)
e|-----------------5-8b8b8b-8p7p5-8p7p5-8p7p5-8p7p5-8p7p5------------------|
B|----5-8~~---5h8-----------------------------------------8p7p5-8p7p5-8p7p5|
G|5h7-----------------------------------------------------------------------|
D|--------------------------------------------------------------------------|
A|--------------------------------------------------------------------------|
E|--------------------------------------------------------------------------|
Solo (cont.)
e|------------------------8p7p5-8p7p5-8p7p5-8p7p5-8p7p5-8p5---------------------|
B|8p7p5-8p7p5-8p7p5-8p7p5-----------------------------------5p8-----------------|
G|--------------------------------------------------------------7p5-------------|
D|------------------------------------------------------------------7p5---------|
A|----------------------------------------------------------------------7p5-----|
E|--------------------------------------------------------------------------8p5b|
End Riff
e|------------------------------------------------------------------------------|
B|------------------------------------------------------------------------------|
G|------------------------------------------------------------------------------|
D|-7-7-7p5-----7-7-7p5-----7-7-7p5----------------------------------------------|
A|---------7-----------7-----------7-7p5---------------------------------------|
E|----------------------------------------8-5b/12\0-----------------------------|
| /  slide up
| \  slide down
| h  hammer-on
| p  pull-off
| ~  vibrato
| b  bend

Song Layout
Riff 1 x1
Riff 2 x1
Riff 1 x1
Riff 2 x1
Riff 3 x1
Riff 1 x1
Riff 2 x1
Riff 1 x1
Riff 2 x1
Riff 3 x1
Riff 4 x1
Riff 5 x1
Riff 4 x1
Riff 5 x1
Solo
Riff 1 x1
End Riff
Related for The Loose Screws - Scalded Dog tab