Song name
# A B C D E F G H I J K L M N O P Q R S T U V W X Y Z

Misc Unsigned Bands - First Murdehh After Midnight - Weve Had Good Bad Times tab

#----------------------------------PLEASE NOTE---------------------------------#
#This file is the author's own work and represents their interpretation of the #
#song. You may only use this file for private study, scholarship, or research. #
#------------------------------------------------------------------------------##


Gtr I (D A D G B E) - 'Carl - Distortion Right Channel'
Gtr II (D A D G B E) - 'Jake - Distortion Right Channel'
Gtr III (D A D G B E) - 'Carl - Clean Left Channel'
Gtr IV (D A D G B E) - 'Jake - Clean Right Channel'
Gtr V (D A D G B E) - 'Carl - Lead Distortion Center'
Gtr VI (D A D G B E) - 'Jake - Distortion Center'

  Intro Guitar Solo
   Moderately Q=100
  4/4
   Gtr V
   ~                               ~~~                          ~~
   H             E   E   E     E   H               S S S S S S  E
||-5---------------------5-----6-|-7b8-----------------5-6-5--------|
||---------------6---8-----------|-----------------6-8-------8-10---|
||-------------------------------|----------------------------------|
||-------------------------------|----------------------------------|
||-------------------------------|----------------------------------|
||-------------------------------|----------------------------------|
|
|  Gtr VI
|    PM----------------|               PM--------|     PM---------|
|  E S S S S S S S S S S S  E.     E   S S S S S S E   S S S S  S S
||-------------------------------|----------------------------------|
||-------------------------------|----------------------------------|
||-7---------------------9-10----|-3---------------5----------------|
||-7-7-7-7-7-7-7-7-7-7-7-x--x----|-3---3-3-3-3-3-3-5---5-5-5-5--5-5-|
||-5-5-5-5-5-5-5-5-5-5-5-7--8----|-1---1-1-1-1-1-1-3---3-3-3-3--3-3-|
||-------------------------------|----------------------------------|


   T  T  T  T  T  T  T  T  T  T  T  T  T  T  T  T  T  T  T  T  T  T  T  T  T  T  T   T  T  T  T  T
|--------------------------------------------------------------------------------------------------|
|--------------------------------------------------------------------------------------------------|
|-------------------------------------------------------------------14-15-17-14-15--17----------15-|
|-------------------------------12-13-15-12-13-15-14-15-17-14-15-17--------------------15-17-19----|
|-------------12-13-15-12-13-15--------------------------------------------------------------------|
|-15-17-15-17--------------------------------------------------------------------------------------|
|
|              PM---------------------------------------------------|
|  E           S     S     S     S     S     S     S     S     S     S     S     E.
|--------------------------------------------------------------------------------------------------|
|--------------------------------------------------------------------------------------------------|
|--7-----------------------------------------------------------------------9----10-----------------|
|--7-----------7-----7-----7-----7-----7-----7-----7-----7-----7-----7-----x-----x-----------------|
|--5-----------5-----5-----5-----5-----5-----5-----5-----5-----5-----5-----7-----8-----------------|
|--------------------------------------------------------------------------------------------------|


                                                    ~~~
   T  T  T  T  T  T  T  T  T  T  T  T  T  T  T  T   H
|-------------------------------------------------/17----------------|
|--------------------------------------------------------------------|
|-17-19-17-15----------------15-17-19-15-17-19-17--------------------|
|-------------19-17-15-17-19-----------------------------------------|
|--------------------------------------------------------------------|
|--------------------------------------------------------------------|
|
|              PM---------------------------|         PM--------|
|  E           S     S     S     S     S     S      E S S S S S S
|--------------------------------------------------------------------|
|--------------------------------------------------------------------|
|--3------------------------------------------------5----------------|
|--3-----------3-----3-----3-----3-----3-----3------5-5-5-5-5-5-5----|
|--1-----------1-----1-----1-----1-----1-----1------3-3-3-3-3-3-3----|
|--------------------------------------------------------------------|


   |-------3--------|  |--------3---------|  |--------3---------|  |--------3---------|
   S  S  S  S  S    S  S  S    S  S  S    S  S  S    S  S  S    S  S  S      S  S  S  S
|----------10-12---13------------12-13---15------------13-15---17--------------15-17-18-|
|-10h11h13------------11h13h==15------------13h15h==17------------15h17h====18----------|
|---------------------------------------------------------------------------------------|
|---------------------------------------------------------------------------------------|
|---------------------------------------------------------------------------------------|
|---------------------------------------------------------------------------------------|
|
|           PM-----------------------------------------------|
|  E        S    S     S    S     S    S     S    S     S    S     S     E.
|---------------------------------------------------------------------------------------|
|---------------------------------------------------------------------------------------|
|--7---------------------------------------------------------------9----10--------------|
|--7--------7----7-----7----7-----7----7-----7----7-----7----7-----x-----x--------------|
|--5--------5----5-----5----5-----5----5-----5----5-----5----5-----7-----8--------------|
|---------------------------------------------------------------------------------------|


                          \3
   ~~~~~
   H.                     Q
|-20b22-------------------------------|
|-------------------------------------|
|-------------------------------------|
|-------------------------------------|
|-------------------------------------|
|-------------------------0-----------|
|
|       PM--------|   PM-----------|
|  E    S S S S S S E S S    S S S S
|-------------------------------------|
|-------------------------------------|
|--3----------------5-----------------|
|--3----3-3-3-3-3-3-5-5-5----5-5-5-5--|
|--1----1-1-1-1-1-1-3-3-3----3-3-3-3--|
|-------------------------------------|


   ~~
   H              T  T  T  T  T  T  T  T  T  T  T   T  T  T  T  T
|-----------------------------------------------------------------|
|-----------------------------------------------------------17-18-|
|-----------------------------------------------------17-19-------|
|-12-------------12h14h15-14h15h17-15h17h19-17h19--20-------------|
|-----------------------------------------------------------------|
|-----------------------------------------------------------------|
|
|    PM----------------------------|
|  E S S S S S S  S     S     S     S     S     E.
|-----------------------------------------------------------------|
|-----------------------------------------------------------------|
|--7--------------------------------------9----10-----------------|
|--7-7-7-7-7-7-7--7-----7-----7-----7-----x-----x-----------------|
|--5-5-5-5-5-5-5--5-----5-----5-----5-----7-----8-----------------|
|-----------------------------------------------------------------|


   ~~~~~~~~
   H     H
|-------------|
|-20----22----|
|-------------|
|-------------|
|-------------|
|-------------|
|
|  H     H
|-------------|
|-------------|
|--3-----5----|
|--3-----5----|
|--1-----3----|
|--3-----5----|


   ~~~~~~~~~~~~~~~~~~~~
   W               +W            Q    H.         W
|-20b22=========|=(20)--------|-20r\----------|--------||
|---------------|-------------|---------------|--------||
|---------------|-------------|---------------|--------||
|---------------|-------------|---------------|--------||
|---------------|-------------|---------------|--------||
|---------------|-------------|---------------|--------||
|
|                                >
|  W               +W           +W              +W
|---------------|-------------|---------------|--------||
|---------------|-------------|---------------|--------||
|--7------------|--(7)--------|-(7)-----------|-(7)----||
|--7------------|--(7)--------|-(7)-----------|-(7)----||
|--5------------|--(5)--------|-(5)-----------|-(5)----||
|--7------------|--(7)--------|-(7)-----------|-(7)----||


 Pre-Verse
  Gtr I
  PM------------|                 PM------------------------------|
  E E E E E E E E   H     H       S  S S S S  S S S S S S S S S S S
|-----------------|------------|-------------------------------------||
|-----------------|------------|-------------------------------------||
|-----------------|------------|-------------------------------------||
|-1-0---0---4---0-|-7----11----|-------------------------------------||
|-1-0---0---4---0-|-8----12----|----------------3--------------------||
|-1-0---0---4---0-|-7----11----|-\6--5-0-3-0--3---7-6-5-3-5-0-1-3-0--||
|
| Gtr II
| PM------------|
| E E E E E E E E   H     H       Q        H.
|-----------------|------------|-------------------------------------||
|-----------------|------------|-------------------------------------||
|-----------------|------------|-------------------------------------||
|-1-0---0---4---0-|-7----11----|-12\---------------------------------||
|-1-0---0---4---0-|-8----12----|-12\---------------------------------||
|-1-0---0---4---0-|-7----11----|-12\---------------------------------||


   Verse 1
                                       ~
    S E E S S S E E E S S   S E E  E S Q  S S S S
||------------------------|-----------------------|
||o-----------------------|-------/3--------------|
||------------------------|----------3-2----------|
||------------------------|-----------------------|
||o-1-0---0-0-0-0---0-1-0-|-1-0-----------0-1-0-3-|
||--1-0---0-0-0-0---0-1-0-|-1-0-----------0-1-0-3-|
|
|                                      ~
|   S E E S S S E E E S S   S E E  E S Q  S S S S
||------------------------|-----------------------|
||o-----------------------|-------/6--------------|
||------------------------|----------7-6----------|
||------------------------|-----------------------|
||o-1-0---0-0-0-0---0-1-0-|-1-0-----------0-1-0-3-|
||--1-0---0-0-0-0---0-1-0-|-1-0-----------0-1-0-3-|


  S E E S S S E E E S S   S E E E S Q  S S S S     4x
|-----------------------|--------------------------||
|-----------------------|-------------------------o||
|-----------------------|--------------------------||
|-----------------------|--------------------------||
|-1-0---0-0-0-0---0-1-0-|-1-0---0-0-5--0-1-0-3----o||
|-1-0---0-0-0-0---0-1-0-|-1-0---0-0-5--0-1-0-3-----||
|
| S E E S S S E E E S S   S E E E S Q  S S S S     4x
|-----------------------|--------------------------||
|-----------------------|-------------------------o||
|-----------------------|--------------------------||
|-----------------------|--------------------------||
|-1-0---0-0-0-0---0-1-0-|-1-0---0-0-5--0-1-0-3----o||
|-1-0---0-0-0-0---0-1-0-|-1-0---0-0-5--0-1-0-3-----||


 Pre-Chorus              Chorus
  Gtr I
                           ~~
  E S S E S S E E E E      H              E    E    E      E
|---------------------||-------------------------------------|
|---------------------||o-10-----------------------10-----11-|
|---------------------||-----------------10---12-------------|
|-------5-7-8-------5-||-------------------------------------|
|-5-7-8-------0-4-7---||o------------------------------------|
|---------------------||-------------------------------------|
|
| Gtr II
|                          ~~
| E S S E S S E E E E      H              E    E    E      E
|---------------------||-------------------------------------|
|---------------------||o-13-----------------------13-----15-|
|-------3-5-7-------3-||-----------------14---15-------------|
|-3-5-7---------2-5---||-------------------------------------|
|-------------4-------||o------------------------------------|
|---------------------||-------------------------------------|
|
| Gtr VI
|                            PM------------------|
| W                        E S S S S S S  S S  S S  S  E.
|---------------------||-------------------------------------|
|---------------------||o------------------------------------|
|---------------------||---7------------------------9-10-----|
|---------------------||---7-7-7-7-7-7-7--7-7--7-7--x--x-----|
|---------------------||o--5-5-5-5-5-5-5--5-5--5-5--7--8-----|
|---------------------||-------------------------------------|


   ~~                               ~~
   H              S  S  S  S  S  S  E
|-----------------------5--6--5---------|
|-11--------------6--8-----------8-10---|
|---------------------------------------|
|---------------------------------------|
|---------------------------------------|
|---------------------------------------|
|
|  ~~                               ~~
|  H              S  S  S  S  S  S  E
|----------------10-12-13-10-13-12-13---|
|-15------------------------------------|
|---------------------------------------|
|---------------------------------------|
|---------------------------------------|
|---------------------------------------|
|
|    PM--------|        PM------------|
|  E S S S S S S  E     S  S  S  S  S S
|---------------------------------------|
|---------------------------------------|
|--3--------------5---------------------|
|--3-3-3-3-3-3-3--5-----5--5--5--5--5-5-|
|--1-1-1-1-1-1-1--3-----3--3--3--3--3-3-|
|---------------------------------------|


                            ~~~
   S  S  S  S  S  S  S  S   H
|-------------------------/13-------------|
|-13-13-------11-11-----------------------|
|-------12-12-------10-10-----------------|
|-----------------------------------------|
|-----------------------------------------|
|-----------------------------------------|
|
|                           ~~~
|  S  S  S  S  S  S  S  S   H
|-------------------------/17-------------|
|-20-20-------18-18-----------------------|
|-------19-19-------17-17-----------------|
|-----------------------------------------|
|-----------------------------------------|
|-----------------------------------------|
|
|        PM-----------------------|
|  E     S  S  S  S  S  S   S S S S S  E.
|-----------------------------------------|
|-----------------------------------------|
|--7--------------------------------9-10--|
|--7-----7--7--7--7--7--7---7-7-7-7-x--x--|
|--5-----5--5--5--5--5--5---5-5-5-5-7--8--|
|-----------------------------------------|


            ~~~~~~~~~~~~~~~~
   |--3--|
   S  S  S  Q.            H
|----------------------------------------|
|------------------------10--------------|
|-10p=9h10-12----------------------------|
|----------------------------------------|
|----------------------------------------|
|----------------------------------------|
|
|           ~~~~~~~~~~~~~~~~
|  |--3--|
|  S  S  S  Q.            H
|----------------------------------------|
|------------------------13--------------|
|-14p12h14-15----------------------------|
|----------------------------------------|
|----------------------------------------|
|----------------------------------------|
|
|           PM---------|    PM--------|
|  E        S  S S S S S  E S S S S S S
|----------------------------------------|
|----------------------------------------|
|--3----------------------5--------------|
|--3--------3--3-3-3-3-3--5-5-5-5-5-5-5--|
|--1--------1--1-1-1-1-1--3-3-3-3-3-3-3--|
|----------------------------------------|


  1.
    ~~~                     ~~~~~~~~~~~~~~~~~~
    S  S  S  S  S  S  S  S  H              H.                    Q
|-/13----------------------13-----------|-10--------------------12\--------||
|-----15----------------15--------------|---------------------------------o||
|--------14----------14-----------------|----------------------------------||
|-----------15-12-15--------------------|----------------------------------||
|---------------------------------------|---------------------------------o||
|---------------------------------------|----------------------------------||
|
|   ~~~                     ~~~~~~~~~~~~~~~~~~
|   S  S  S  S  S  S  S  S  H              H.                    Q
|-/17-13----------------13-17-----------|-13--------------------15\--------||
|--------15----------15-----------------|---------------------------------o||
|-----------14----14--------------------|----------------------------------||
|--------------15-----------------------|----------------------------------||
|---------------------------------------|---------------------------------o||
|---------------------------------------|----------------------------------||
|
|      PM-----------------------|             PM--------|   PM----------|
|   E  S  S  S  S  S  S  S  S S S S  E.    E  S S S S S S E S S  S  S S S
|---------------------------------------|----------------------------------||
|---------------------------------------|---------------------------------o||
|---7-----------------------------9-10--|--3--------------5----------------||
|---7--7--7--7--7--7--7--7--7-7-7-x--x--|--3--3-3-3-3-3-3-5-5-5--5--5-5-5--||
|---5--5--5--5--5--5--5--5--5-5-5-7--8--|--1--1-1-1-1-1-1-3-3-3--3--3-3-3-o||
|---------------------------------------|----------------------------------||


  2.
   E  E    E    E    E    E    E      E
|-18-15--------15---17------------------|
|---------15-------------18----------18-|
|-----------------------------17--------|
|---------------------------------------|
|---------------------------------------|
|---------------------------------------|
|
|  E  E    E    E    E    E    E      E
|-22-18--------18---20------------------|
|---------18-------------22----------22-|
|-----------------------------21--------|
|---------------------------------------|
|---------------------------------------|
|---------------------------------------|
|
|     PM--------------------|
|  E  S S  S S  S S  S S  S S  S  E.
|---------------------------------------|
|---------------------------------------|
|--7---------------------------9-10-----|
|--7--7-7--7-7--7-7--7-7--7-7--x--x-----|
|--5--5-5--5-5--5-5--5-5--5-5--7--8-----|
|---------------------------------------|


                                                 ~~
   +E   E    +E     E    +E   E    +E     E      W
|------12---(12)---13---(13)-15---(15)---17---|-18----||
|-(18)----------------------------------------|-------||
|---------------------------------------------|-------||
|---------------------------------------------|-------||
|---------------------------------------------|-------||
|---------------------------------------------|-------||
|
|                                                ~~
|  +E   E    +E     E    +E   E    +E     E      W
|------15---(15)---17---(17)-18---(18)---20---|-22----||
|-(22)----------------------------------------|-------||
|---------------------------------------------|-------||
|---------------------------------------------|-------||
|---------------------------------------------|-------||
|---------------------------------------------|-------||
|
|       PM------------|       PM------------|
|   E   S S   S  S  S S   E   S S   S  S  S S    W
|---------------------------------------------|-------||
|---------------------------------------------|-------||
|---3---------------------5-------------------|--7----||
|---3---3-3---3--3--3-3---5---5-5---5--5--5-5-|--7----||
|---1---1-1---1--1--1-1---3---3-3---3--3--3-3-|--5----||
|---------------------------------------------|-------||


   Verse 2
    Gtr I
                                       ~
    S E E S S S E E E S S   S E E  E S Q  S S S S
||------------------------|-----------------------|
||o-----------------------|-------/3--------------|
||------------------------|----------3-2----------|
||--1-0---0-0-0-0---0-1-0-|-1-0-----------0-1-0-3-|
||o-1-0---0-0-0-0---0-1-0-|-1-0-----------0-1-0-3-|
||--1-0---0-0-0-0---0-1-0-|-1-0-----------0-1-0-3-|
|
|   Gtr II
|                                      ~
|   S E E S S S E E E S S   S E E  E S Q  S S S S
||------------------------|-----------------------|
||o-----------------------|-------/6--------------|
||------------------------|----------7-6----------|
||--1-0---0-0-0-0---0-1-0-|-1-0-----------0-1-0-3-|
||o-1-0---0-0-0-0---0-1-0-|-1-0-----------0-1-0-3-|
||--1-0---0-0-0-0---0-1-0-|-1-0-----------0-1-0-3-|


  S E E S S S E E E S S   S E E E S Q  S S S S     4x
|-----------------------|--------------------------||
|-----------------------|-------------------------o||
|-----------------------|--------------------------||
|-1-0---0-0-0-0---0-1-0-|-1-0---0-0-5--0-1-0-3-----||
|-1-0---0-0-0-0---0-1-0-|-1-0---0-0-5--0-1-0-3----o||
|-1-0---0-0-0-0---0-1-0-|-1-0---0-0-5--0-1-0-3-----||
|
| S E E S S S E E E S S   S E E E S Q  S S S S     4x
|-----------------------|--------------------------||
|-----------------------|-------------------------o||
|-----------------------|--------------------------||
|-1-0---0-0-0-0---0-1-0-|-1-0---0-0-5--0-1-0-3-----||
|-1-0---0-0-0-0---0-1-0-|-1-0---0-0-5--0-1-0-3----o||
|-1-0---0-0-0-0---0-1-0-|-1-0---0-0-5--0-1-0-3-----||


 Pre-Chorus              Chorus
  Gtr I
                           ~~
  E S S E S S E E E E      H                E    E    E      E
|---------------------||---------------------------------------|
|---------------------||o-10-------------------------10-----11-|
|---------------------||-------------------10---12-------------|
|-------5-7-8-------5-||---------------------------------------|
|-5-7-8-------0-4-7---||o--------------------------------------|
|---------------------||---------------------------------------|
|
| Gtr II
|                          ~~
| E S S E S S E E E E      H                E    E    E      E
|---------------------||---------------------------------------|
|---------------------||o-13-------------------------13-----15-|
|-------3-5-7-------3-||-------------------14---15-------------|
|-3-5-7---------2-5---||---------------------------------------|
|-------------4-------||o--------------------------------------|
|---------------------||---------------------------------------|
|
| Gtr VI
|                            PM--------------------|
| H           H            S S S S S S S S  S S  S S  S  E.
|---------------------||---------------------------------------|
|---------------------||o--------------------------------------|
|-3-----------6-------||---7--------------------------9-10-----|
|-3-----------6-------||---7-7-7-7-7-7-7-7--7-7--7-7--x--x-----|
|-1-----------4-------||o--5-5-5-5-5-5-5-5--5-5--5-5--7--8-----|
|---------------------||---------------------------------------|


   ~~                               ~~
   H              S  S  S  S  S  S  E
|-----------------------5--6--5-----------|
|-11--------------6--8-----------8-10-----|
|-----------------------------------------|
|-----------------------------------------|
|-----------------------------------------|
|-----------------------------------------|
|
|  ~~                               ~~
|  H              S  S  S  S  S  S  E
|----------------10-12-13-10-13-12-13-----|
|-15--------------------------------------|
|-----------------------------------------|
|-----------------------------------------|
|-----------------------------------------|
|-----------------------------------------|
|
|    PM--------|        PM------------|
|  E S S S S S S  E     S  S  S  S  S S
|-----------------------------------------|
|-----------------------------------------|
|--3--------------5-----------------------|
|--3-3-3-3-3-3-3--5-----5--5--5--5--5-5---|
|--1-1-1-1-1-1-1--3-----3--3--3--3--3-3---|
|-----------------------------------------|


  1.
    ~~~                     ~~~~~~~~~~~~~~~~~~
    S  S  S  S  S  S  S  S  H              H.                    Q
|-/13----------------------13-----------|-10--------------------12\--------||
|-----15----------------15--------------|---------------------------------o||
|--------14----------14-----------------|----------------------------------||
|-----------15-12-15--------------------|----------------------------------||
|---------------------------------------|---------------------------------o||
|---------------------------------------|----------------------------------||
|
|   ~~~                     ~~~~~~~~~~~~~~~~~~
|   S  S  S  S  S  S  S  S  H              H.                    Q
|-/17-13----------------13-17-----------|-13--------------------15\--------||
|--------15----------15-----------------|---------------------------------o||
|-----------14----14--------------------|----------------------------------||
|--------------15-----------------------|----------------------------------||
|---------------------------------------|---------------------------------o||
|---------------------------------------|----------------------------------||
|
|      PM-----------------------|             PM--------|   PM----------|
|   E  S  S  S  S  S  S  S  S S S S  E.    E  S S S S S S E S S  S  S S S
|---------------------------------------|----------------------------------||
|---------------------------------------|---------------------------------o||
|---7-----------------------------9-10--|--3--------------5----------------||
|---7--7--7--7--7--7--7--7--7-7-7-x--x--|--3--3-3-3-3-3-3-5-5-5--5--5-5-5--||
|---5--5--5--5--5--5--5--5--5-5-5-7--8--|--1--1-1-1-1-1-1-3-3-3--3--3-3-3-o||
|---------------------------------------|----------------------------------||


  2.
   E  E    E    E    E    E    E      E
|-18-15--------15---17------------------|
|---------15-------------18----------18-|
|-----------------------------17--------|
|---------------------------------------|
|---------------------------------------|
|---------------------------------------|
|
|  E  E    E    E    E    E    E      E
|-22-18--------18---20------------------|
|---------18-------------22----------22-|
|-----------------------------21--------|
|---------------------------------------|
|---------------------------------------|
|---------------------------------------|
|
|     PM--------------------|
|  E  S S  S S  S S  S S  S S  S  E.
|---------------------------------------|
|---------------------------------------|
|--7---------------------------9-10-----|
|--7--7-7--7-7--7-7--7-7--7-7--x--x-----|
|--5--5-5--5-5--5-5--5-5--5-5--7--8-----|
|---------------------------------------|


                                                 ~~
   +E   E    +E     E    +E   E    +E     E      W
|------12---(12)---13---(13)-15---(15)---17---|-18----||
|-(18)----------------------------------------|-------||
|---------------------------------------------|-------||
|---------------------------------------------|-------||
|---------------------------------------------|-------||
|---------------------------------------------|-------||
|
|                                                ~~
|  +E   E    +E     E    +E   E    +E     E      W
|------15---(15)---17---(17)-18---(18)---20---|-22----||
|-(22)----------------------------------------|-------||
|---------------------------------------------|-------||
|---------------------------------------------|-------||
|---------------------------------------------|-------||
|---------------------------------------------|-------||
|
|       PM------------|       PM------------|
|   E   S S   S  S  S S   E   S S   S  S  S S    W
|---------------------------------------------|-------||
|---------------------------------------------|-------||
|---3---------------------5-------------------|--7----||
|---3---3-3---3--3--3-3---5---5-5---5--5--5-5-|--7----||
|---1---1-1---1--1--1-1---3---3-3---3--3--3-3-|--5----||
|---------------------------------------------|-------||


 Main Guitar Solo
  Gtr V
                                ~~~~~~~~~~
   S S  T  T  T  T  T  T  T  T  E    H
|---------------------13-17p13------20b22---------|
|------------------15----------15-----------------|
|---------------14--------------------------------|
|----8-10s12-15-----------------------------------|
|-10----------------------------------------------|
|-------------------------------------------------|
|
|               Gtr I
|  S E        E           S     S S  E    E E S S
|-------------------------------------------------|
|-------------------------------------------------|
|-------------------------------------------------|
|-------------------------------------------------|
|--1-0--------------------0-----0-0--0------0-1-0-|
|--1-0--------------------0-----0-0--0------0-1-0-|
|
|               Gtr II
|  S E        E           S     S S  E    E E S S
|-------------------------------------------------|
|-------------------------------------------------|
|-------------------------------------------------|
|-------------------------------------------------|
|--1-0--------------------0-----0-0--0------0-1-0-|
|--1-0--------------------0-----0-0--0------0-1-0-|


   T  T  T  T  T  T  T  T  T  T  T  T  T  T  T  T  T  T  T  T  T  T  T  T  T  T  T  T  T  T  T  T
|-20-18-17-15-18-17-15-13-17-15-13-12-15-13-12-10-13-12-10----12-10-------10----------------------|
|----------------------------------------------------------13-------13-11----13-11-10-13-11-10----|
|----------------------------------------------------------------------------------------------12-|
|-------------------------------------------------------------------------------------------------|
|-------------------------------------------------------------------------------------------------|
|-------------------------------------------------------------------------------------------------|
|
|                                                  ~~
|  S     E           E           E           S     Q                       S     S     S     S
|-------------------------------------------------------------------------------------------------|
|-------------------------------/3----------------------------------------------------------------|
|--------------------------------------------3-----2----------------------------------------------|
|-------------------------------------------------------------------------------------------------|
|--1-----0-----------------------------------------------------------------0-----1-----0-----3----|
|--1-----0-----------------------------------------------------------------0-----1-----0-----3----|
|
|                                                  ~~
|  S     E           E           E           S     Q                       S     S     S     S
|-------------------------------------------------------------------------------------------------|
|-------------------------------/6----------------------------------------------------------------|
|--------------------------------------------7-----6----------------------------------------------|
|-------------------------------------------------------------------------------------------------|
|--1-----0-----------------------------------------------------------------0-----1-----0-----3----|
|--1-----0-----------------------------------------------------------------0-----1-----0-----3----|


                      ~~~~                ~~~~~
                                                        |--3--|  |----3----|
   H              E  +Q       E      a a  H             E  E  E  E    E    E
|----------------------------------|-----20b22---------20-22-20s18---20---18s==|
|----------------------------------|---x---------------------------------------|
|-14b15==========14r(14)-----14\---|-x-----------------------------------------|
|----------------------------------|-------------------------------------------|
|----------------------------------|-------------------------------------------|
|----------------------------------|-------------------------------------------|
|
|  S     E E S S  S   E  E E  S  S        S    E E E S  Q        S S    S    S
|----------------------------------|-------------------------------------------|
|----------------------------------|-------------------------------------------|
|----------------------------------|-------------------------------------------|
|----------------------------------|-------------------------------------------|
|--1-----0---0-0--0---0----0--1--0-|------1----0---0-0--5--------0-1----0----3-|
|--1-----0---0-0--0---0----0--1--0-|------1----0---0-0--5--------0-1----0----3-|
|
|  S     E E S S  S   E  E E  S  S        S    E E E S  Q        S S    S    S
|----------------------------------|-------------------------------------------|
|----------------------------------|-------------------------------------------|
|----------------------------------|-------------------------------------------|
|----------------------------------|-------------------------------------------|
|--1-----0---0-0--0---0----0--1--0-|------1----0---0-0--5--------0-1----0----3-|
|--1-----0---0-0--0---0----0--1--0-|------1----0---0-0--5--------0-1----0----3-|


                                  ~~~~
   |---3---|
   E    E  E     H                Q
|-17---18-17---[13]pb15r========[13]-------|
|------------------------------------------|
|------------------------------------------|
|------------------------------------------|
|------------------------------------------|
|------------------------------------------|
|
|  S E       E          S S S E   E  E S S
|------------------------------------------|
|------------------------------------------|
|------------------------------------------|
|------------------------------------------|
|--1-0------------------0-0-0-0------0-1-0-|
|--1-0------------------0-0-0-0------0-1-0-|
|
|  S E       E          S S S E   E  E S S
|------------------------------------------|
|------------------------------------------|
|------------------------------------------|
|------------------------------------------|
|--1-0------------------0-0-0-0------0-1-0-|
|--1-0------------------0-0-0-0------0-1-0-|


    T  T  T  T  T  T  T  T  T  T  T  T  T  T  T  T  T  T  T  T  T  T  T  T  T  T  T  T  T  T  T  T
|--------------------------------------------------------------------------------------------------|
|--------------------------------------------------------------------------------------------------|
|--------------------------------------------------------------------------------------------------|
|--------------------------------------------------------10----------------10-12-10----------10-12-|
|-----------10-12-10----------10-12-13-12-10----10-12-13----13-12-10-12-13----------13-12-13-------|
|-/12-14-15----------15-14-15----------------15----------------------------------------------------|
|
|                                                   ~~
|   S     E           E           E           S     Q                       S     S     S     S
|--------------------------------------------------------------------------------------------------|
|--------------------------------/3----------------------------------------------------------------|
|---------------------------------------------3-----2----------------------------------------------|
|--------------------------------------------------------------------------------------------------|
|---1-----0-----------------------------------------------------------------0-----1-----0-----3----|
|---1-----0-----------------------------------------------------------------0-----1-----0-----3----|
|
|                                                   ~~
|   S     E           E           E           S     Q                       S     S     S     S
|--------------------------------------------------------------------------------------------------|
|--------------------------------/6----------------------------------------------------------------|
|---------------------------------------------7-----6----------------------------------------------|
|--------------------------------------------------------------------------------------------------|
|---1-----0-----------------------------------------------------------------0-----1-----0-----3----|
|---1-----0-----------------------------------------------------------------0-----1-----0-----3----|


  T  T  T  T  T  T T  T T  T  T  T T  T  T  T T  T T  T  T  T  T  T T  T  T  T  T  T  T  T
|------------------------------------------------------------------------------------------|
|----------------------------------------------------------10---------------10-11-10-------|
|-9----------------9-10-9----------9-10-12-10-9----9-10-12----12-10-9-10-12----------12-10-|
|---12-10----10-12--------12-10-12--------------12-----------------------------------------|
|---------13-------------------------------------------------------------------------------|
|------------------------------------------------------------------------------------------|
|
| S     E          E          S    S     S    E          E          E           S     S
|------------------------------------------------------------------------------------------|
|------------------------------------------------------------------------------------------|
|------------------------------------------------------------------------------------------|
|------------------------------------------------------------------------------------------|
|-1-----0---------------------0----0-----0----0---------------------0-----------1-----0----|
|-1-----0---------------------0----0-----0----0---------------------0-----------1-----0----|
|
| S     E          E          S    S     S    E          E          E           S     S
|------------------------------------------------------------------------------------------|
|------------------------------------------------------------------------------------------|
|------------------------------------------------------------------------------------------|
|------------------------------------------------------------------------------------------|
|-1-----0---------------------0----0-----0----0---------------------0-----------1-----0----|
|-1-----0---------------------0----0-----0----0---------------------0-----------1-----0----|


   T  T  T  T  T  T  T  T  T  T  T  T  T  T  T  T  T  T  T  T  T  T  T  T  T  T  T  T  T  T  T  T
|-------------------------------10----------------10-12-10----------10-12-13-12-10-12-13-15-13-12-|
|----10-11-13-11-10----10-11-13----13-11-10-11-13----------13-11-13-------------------------------|
|-12----------------12----------------------------------------------------------------------------|
|-------------------------------------------------------------------------------------------------|
|-------------------------------------------------------------------------------------------------|
|-------------------------------------------------------------------------------------------------|
|
|  S     E           E           E           S     Q                       S     S     S     S
|-------------------------------------------------------------------------------------------------|
|-------------------------------------------------------------------------------------------------|
|-------------------------------------------------------------------------------------------------|
|-------------------------------------------------------------------------------------------------|
|--1-----0-----------------------0-----------0-----5-----------------------0-----1-----0-----3----|
|--1-----0-----------------------0-----------0-----5-----------------------0-----1-----0-----3----|
|
|  S     E           E           E           S     Q                       S     S     S     S
|-------------------------------------------------------------------------------------------------|
|-------------------------------------------------------------------------------------------------|
|-------------------------------------------------------------------------------------------------|
|-------------------------------------------------------------------------------------------------|
|--1-----0-----------------------0-----------0-----5-----------------------0-----1-----0-----3----|
|--1-----0-----------------------0-----------0-----5-----------------------0-----1-----0-----3----|


                              Clean Break
             H.=H          Slowly Q.=50
                              6/8
  Gtr V                    Gtr III
                 >
    ~~~~~~~~~~~~~~~~
    W           +W              E   E  E  E  E  E
|-/22--------|-(22)--------||------------10-------|
|------------|-------------||o-----10-------10----|
|------------|-------------||---------10-------10-|
|------------|-------------||---------------------|
|------------|-------------||o--8-----------------|
|------------|-------------||---------------------|
|
| Gtrs I, II
|                               >
|   W           +W             +H.
|------------|-------------||---------------------|
|------------|-------------||o--------------------|
|------------|-------------||---------------------|
|---0--------|--(0)--------||--(0)----------------|
|---0--------|--(0)--------||o-(0)----------------|
|---0--------|--(0)--------||--(0)----------------|
|
| Gtr IV
|   W            W              E   E  E  E  E  E
|------------|-------------||-------------5-------|
|------------|-------------||o------6--------6----|
|------------|-------------||----------7--------7s|
|------------|-------------||---0-----------------|
|------------|-------------||o--------------------|
|------------|-------------||---------------------|


   E  E E E E E   E  E E  E E E   E E E E E E   4x
|-----------5---|---------------|-------0-------||
|-----6---8---6-|----8---10-8---|-3-1-----2----o||
|-------7-------|------9------9-|-----2-----0---||
|---------------|---------------|---------------||
|--5------------|-7-------------|--------------o||
|---------------|---------------|---------------||
|
| +H.             H.              W             4x
|---------------|---------------|---------------||
|---------------|---------------|--------------o||
|---------------|---------------|---------------||
|-(0)-----------|---------------|---------------||
|-(0)-----------|---------------|--------------o||
|-(0)-----------|---------------|---------------||
|
|  E  E E E E E   E  E E  E E E   E E E E E E   4x
|---------0-1---|----0------0---|---------------||
|-----3-------3-|---------6-----|-------2------o||
|--3----3-------|------5------5-|-3-2-----3-----||
|---------------|---------------|-----3-----2---||
|--1------------|-3-------------|--------------o||
|---------------|---------------|---------------||


  Gtr III
   E  E  E  E  E  E    E  E  E  E  E  E   E  E  E  E  E  E   E  E  E  E  E  E
|----------10-------|----------10-------|---------10-------|---------10-------|
|-------11----11----|-------11----11----|------10----10----|------10----10----|
|----10----------10-|----10----------10-|---10----------10-|---10----------10-|
|-12----------------|-12----------------|------------------|------------------|
|-------------------|-------------------|-8----------------|-8----------------|
|-------------------|-------------------|------------------|------------------|
|
| Gtr IV
|  E  E  E  E  E  E    E  E  E  E  E  E   E  E  E  E  E  E   E  E  E  E  E  E
|-----------6-------|-----------6-------|----------5-------|----------0-------|
|--------6-----6----|--------6-----6----|-------6-----6----|-------6-----6----|
|-----7-----------7-|-----7-----------7-|----7-----------7-|----7-----------7-|
|--8----------------|--8----------------|-0----------------|-0----------------|
|-------------------|-------------------|------------------|------------------|
|-------------------|-------------------|------------------|------------------|


  E E E E E E   E E E E E E   E E E E E E      E   E   E   E    E E
|-------4-----|-6-----8-----|-------3-----|----5-----------3---------||
|-----6---6---|---6-----6---|-----5---5---|--------6------------6----||
|---6-------6-|-----6-----6-|---5-------5-|------------5----------5--||
|-6-----------|-------------|-5-----------|--------------------------||
|-------------|-------------|-------------|--------------------------||
|-------------|-------------|-------------|--------------------------||
|
| E E E E E E   E E E E E E   E E E E E E      E   E   E   E    E E
|-------------|-------4-----|-------------|--------------------------||
|-------6-----|-8-----------|-------6-----|----5-----------6---------||
|-----6---6---|---6-----6---|-----5---5---|--------5------------5----||
|---6-------6-|-----6-----6-|---5-------5-|------------5----------5--||
|-4-----------|-------------|-3-----------|--------------------------||
|-------------|-------------|-------------|--------------------------||
|
| Gtr V
| W             W             W             E. S S S S S S S  S S
|-------------|-------------|-------------|----6-5-------------------||
|-------------|-------------|-------------|--------8-6-5-6-8s10p8----||
|-------------|-------------|-------------|--------------------------||
|-------------|-------------|-------------|--------------------------||
|-------------|-------------|-------------|--------------------------||
|-------------|-------------|-------------|--------------------------||


 Second Guitar Solo
  E   E     E    E   E  E   E  E E E   E   E
|---------------10--------|------------5-------|
|----10-------------10----|----6---8-------6---|
|----------10----------10-|------7-------------|
|-------------------------|--------------------|
|-8-----------------------|-5------------------|
|-------------------------|--------------------|
|
| E   E     E    E   E  E   E  E E E   E   E
|----------------5--------|--------0---1-------|
|-----6--------------6----|----3-----------3---|
|-----------7-----------7s|=3----3-------------|
|-0-----------------------|--------------------|
|-------------------------|-1------------------|
|-------------------------|--------------------|
|
| ~~~~~~~~~      ~~~~~~~~~~~~~~
| E.    E.    a  Q.         Q.     S S S S S S
|-------------------------|--------------------|
|-6-----------------------|-6----------6---8---|
|-------7-----5h=7--------|----------7---7-----|
|-------------------------|--------------------|
|-------------------------|--------------------|
|-------------------------|--------------------|


  E   E      E  E  E E   E     E   E   E   E   E
|----------------------|---------------0-------------|
|-----8--------10--8---|-3-----1-----------2---------|
|------------9-------9-|-----------2-----------0-----|
|----------------------|-----------------------------|
|-7--------------------|-----------------------------|
|----------------------|-----------------------------|
|
| E   E      E  E  E E   E     E   E   E   E   E
|-----0------------0---|-----------------------------|
|---------------6------|---------------2-------------|
|------------5-------5-|-3-----2-----------3---------|
|----------------------|-----------3-----------2-----|
|-3--------------------|-----------------------------|
|----------------------|-----------------------------|
|
|               ~~~              PM
| S S S a E.    Q.       S T T S S S S S S S S S S
|----------------------|-----------------------------|
|-5-6-5----------------|-----------------------------|
|-------5s7-----5------|-----------------------------|
|----------------------|-8-7-5-7-------7h8-7-5-7h8---|
|----------------------|---------5-7h8---------------|
|----------------------|-----------------------------|


  E   E     E  E   E     E   E  E    E E  E    E
|-------------10-----------|--------------5------|
|----10-----------10-------|----6------8-------6-|
|----------10-----------10-|---------7-----------|
|--------------------------|---------------------|
|-8------------------------|-5-------------------|
|--------------------------|---------------------|
|
| E   E     E  E   E     E   E  E    E E  E    E
|--------------5-----------|-----------0--1------|
|-----6------------6-------|----3--------------3-|
|-----------7------------7s|=3-------3-----------|
|-0------------------------|---------------------|
|--------------------------|-1-------------------|
|--------------------------|---------------------|
|
| E.    E.     E.    E.      E.   E.   E.   E.
|--------------------------|---------------------|
|--------------5-----6-----|-----------5----6----|
|-------7------------------|------7--------------|
|-7------------------------|-8-------------------|
|--------------------------|---------------------|
|--------------------------|---------------------|


  E   E E  E E E     E  E    E        E       E        E
|----------------|--------------------0----------------------|
|-----8---10-8---|---3--1---------------------2--------------|
|-------9------9-|-----------2-------------------------0-----|
|----------------|-------------------------------------------|
|-7--------------|-------------------------------------------|
|----------------|-------------------------------------------|
|
| E   E E  E E E     E  E    E        E       E        E
|-----0------0---|-------------------------------------------|
|----------6-----|--------------------2----------------------|
|-------5------5-|---3--2---------------------3--------------|
|----------------|-----------3-------------------------2-----|
|-3--------------|-------------------------------------------|
|----------------|-------------------------------------------|
|
| S S Q    E E E     E.    E    T  T  T  S  S     S T  S  S
|----------------|-------------------------------------------|
|-6s8-5----5-6-8-|-/11----10---11-10------------/10----------|
|----------------|-------------------12-10-12---------12-10--|
|----------------|-------------------------------------------|
|----------------|-------------------------------------------|
|----------------|-------------------------------------------|


   E   E      E     E  E  E          E       E      E E    E E   E        E          E               E  E E
|------------------10-------------|------------------------5---|-----------------------------------------------------|
|-----10--------------10----------|----------6--------8------6-|----------8-------------------------10--8------------|
|------------10----------10-------|-----------------7----------|---------------------9--------------------9----------|
|---------------------------------|----------------------------|-----------------------------------------------------|
|--8------------------------------|--5-------------------------|-7---------------------------------------------------|
|---------------------------------|----------------------------|-----------------------------------------------------|
|
|  E   E      E     E  E  E          E       E      E E    E E   E        E          E               E  E E
|-------------------5-------------|-------------------0----1---|----------0-----------------------------0------------|
|------6---------------6----------|----------3---------------3-|-------------------------------------6---------------|
|-------------7-----------7s======|==3--------------3----------|---------------------5--------------------5----------|
|--0------------------------------|----------------------------|-----------------------------------------------------|
|---------------------------------|--1-------------------------|-3---------------------------------------------------|
|---------------------------------|----------------------------|-----------------------------------------------------|
|
|  ~~~~~~~~~~       ~~
|                                                                                    |--3--|
|  E.     E.     T  Q     T  T  T    a  E       +Q      Q.       S  T  T  T  T T  T  T  T  T  S     +Q    T  T  T  T
|---------------------------------|----------------------------|------------10---------------------------------------|
|------------------------10-------|----------------------------|---------13------13-------------------------10-------|
|-12-----10-----------------10----|----------------------------|------12------------13-12-10-10b12-(10)--------13-12-|
|---------------10h12----------12-|-10-12b15---(12)------------|---14------------------------------------------------|
|---------------------------------|----------------------------|-----------------------------------------------------|
|---------------------------------|----------------------------|-----------------------------------------------------|


   E                E              E                    E             E       E
|-------------------------------------------------------0-----------------------|
|--3----------------1-------------------------------------------------2---------|
|----------------------------------2------------------------------------------0-|
|-------------------------------------------------------------------------------|
|-------------------------------------------------------------------------------|
|-------------------------------------------------------------------------------|
|
|  E                E              E                    E             E       E
|-------------------------------------------------------------------------------|
|-------------------------------------------------------2-----------------------|
|--3----------------2-------------------------------------------------3---------|
|----------------------------------3------------------------------------------2-|
|-------------------------------------------------------------------------------|
|-------------------------------------------------------------------------------|
|
|     |--3--|  |---3---|
|  T  T  T  T  T  T    T  T  T  T  T  X  X  X  X  X  X  T  T  T  S       +E..
|------------------------------10s12-13-12-10----10-12-10-----------------------|
|------------------------10-13----------------13----------13-10-13b15---(13)----|
|-13p12p10h12-13p12p==10--------------------------------------------------------|
|-------------------------------------------------------------------------------|
|-------------------------------------------------------------------------------|
|-------------------------------------------------------------------------------|


  E   E  E  E      E        E          E        E     E     E    E E    E  E E  E  E       E
|----------10-----------------------|----------------------------5---|-------------------------------|
|----10-----------10----------------|-----------6-----------8------6-|-----8---10--8-----------------|
|-------10-----------------10-------|-----------------7--------------|-------9-------------9---------|
|-----------------------------------|--------------------------------|-------------------------------|
|-8---------------------------------|--5-----------------------------|--7----------------------------|
|-----------------------------------|--------------------------------|-------------------------------|
|
| E   E  E  E      E        E          E        E     E     E    E E    E  E E  E  E       E
|-----------5-----------------------|-----------------------0----1---|-----0-------0-----------------|
|-----6------------6----------------|-----------3------------------3-|----------6--------------------|
|--------7------------------7s======|==3--------------3--------------|-------5-------------5---------|
|-0---------------------------------|--------------------------------|-------------------------------|
|-----------------------------------|--1-----------------------------|--3----------------------------|
|-----------------------------------|--------------------------------|-------------------------------|
|
|                                                                       ~~~
|                     |----4:3----|    |--3--|
| Q.        S   E     S  S     S  S    S  S  S  S  S  S  S  S S  Q      Q.      E.    T  T T  T  T T
|-------------/10-------------------|--------------------------------|-------------------------------|
|--------------------13-10----------|--------------------------------|-------------------------------|
|-----------------------------12-10-|-12s14s12p10----10-12s14---10---|---------------------9-10-12---|
|-----------------------------------|-------------12-----------------|-10------------10-12-----------|
|-----------------------------------|--------------------------------|-------------------------------|
|-----------------------------------|--------------------------------|-------------------------------|


   E                E              E                    E             E       E
|-------------------------------------------------------0--------------------------|
|--3----------------1-------------------------------------------------2------------|
|----------------------------------2------------------------------------------0----|
|----------------------------------------------------------------------------------|
|----------------------------------------------------------------------------------|
|----------------------------------------------------------------------------------|
|
|  E                E              E                    E             E       E
|----------------------------------------------------------------------------------|
|-------------------------------------------------------2--------------------------|
|--3----------------2-------------------------------------------------3------------|
|----------------------------------3------------------------------------------2----|
|----------------------------------------------------------------------------------|
|----------------------------------------------------------------------------------|
|
|     |-------6--------|
|  T  T  T  T  T  T    T  T  T  T  T  X  X  X  X  X  X  T  T  T  S       +E..
|------------------------10----10s12-13-12-10----10-12-10--------------------------|
|-10-13p11p10-13p11h==13----13----------------13----------13-10-13b15---(13)-------|
|----------------------------------------------------------------------------------|
|----------------------------------------------------------------------------------|
|----------------------------------------------------------------------------------|
|----------------------------------------------------------------------------------|


   E   E  E  E  E  E   E  E    E E  E  E     E    E E  E E E   E  E E E E E
|-----------10-------|--------------5-----|------------------|--------0-----*|
|-----10-------10----|----6------8-----6--|-------8---10-8---|-3--1-----2---*|
|--------10-------10-|---------7----------|---------9------9-|------2-----0-*|
|--------------------|--------------------|------------------|--------------*|
|--8-----------------|-5------------------|--7---------------|--------------*|
|--------------------|--------------------|------------------|--------------*|
|
|  E   E  E  E  E  E   E  E    E E  E  E     E    E E  E E E   E  E E E E E
|------------5-------|-----------0--1-----|-------0------0---|--------------*|
|------6--------6----|----3------------3--|------------6-----|--------2-----*|
|---------7--------7s|=3-------3----------|---------5------5-|-3--2-----3---*|
|--0-----------------|--------------------|------------------|------3-----2-*|
|--------------------|-1------------------|--3---------------|--------------*|
|--------------------|--------------------|------------------|--------------*|
|
|  ~~~                                            ~
|                                |--3--|
|  H.                  E.   E.   E. E. E.    S  E H        S   H.
|--------------------|--------------------|------------------|--------------*|
|-15-----------------|-----------5--6--8--|-10s11-8----------|--------------*|
|--------------------|------7-------------|------------------|--------------*|
|--------------------|-8------------------|------------------|--------------*|
|--------------------|--------------------|------------------|--------------*|
|--------------------|--------------------|------------------|--------------*|


Duration Legend
---------------
W - whole; H - half; Q - quarter; E - 8th; S - 16th; T - 32nd; X - 64th; a - acciaccatura
+ - note tied to previous; . - note dotted; .. - note double dotted
Uncapitalized letters represent notes that are staccato (1/2 duration)
Irregular groupings are notated above the duration line
Duration letters will always appear directly above the note/fret number it represents the
duration for.  Duration letters with no fret number below them represent rests.  Multi-
bar rests are notated in the form Wxn, where n is the number of bars to rest for.  Low
melody durations appear below the staff

Tablature Legend
----------------
 h   - hammer-on
 p   - pull-off
 b   - bend
 pb  - pre-bend
 r   - bend release (if no number after the r, then release immediately)
 /\  - slide into or out of (from/to "nowhere")
 s   - legato slide
 S   - shift slide
  - natural harmonic
[n]  - artificial harmonic
n(n) - tapped harmonic
 ~   - vibrato
 tr  - trill
 T   - tap
 TP  - trem. picking
 PM  - palm muting
\n/  - tremolo bar dip; n = amount to dip
 \n  - tremolo bar down
 n/  - tremolo bar up
/n\  - tremolo bar inverted dip
 =   - hold bend; also acts as connecting device for hammers/pulls
 <>  - volume swell (louder/softer)
 x   - on rhythm slash represents muted slash
 o   - on rhythm slash represents single note slash

Misc Legend
-----------
 |  - bar
||  - double bar
||o - repeat start
o|| - repeat end
*|  - double bar (ending)
 :  - bar (freetime)
 $  - Segno
 &  - Coda
Tempo markers -  = BPM(8/16=s8/s16), where s8 = swing 8ths, s16 = swing 16ths


***************************************************************************************
* Generated using Power Tab Editor by Brad Larsen - http://powertab.guitarnetwork.org *
***************************************************************************************
Tap to rate this tab
 
# A B C D E F G H I J K L M N O P Q R S T U V W X Y Z