Song name
# A B C D E F G H I J K L M N O P Q R S T U V W X Y Z

Misc Unsigned Bands - Zubin Garg - Kaar Parash tab

Kaar Parash
Its an assameese song by Zubin Garg. Name of the album is Sishu

Tabbed by:Ankur Hazarika


e|---------------------------------------------------------------------------|
B|-------8-7~--------8-7~--------8-7-------7-8--10--8-7----------------------|
G|--5/9---------5/9---------5/9---------9---------------9--------------------|
D|---------------------------------------------------------------------------|
A|---------------------------------------------------------------------------|
E|---------------------------------------------------------------------------|

e|---------------------------------------------------------------------------|
B|----7---8--7--------7---8--7-----------7--------8-7------------------------|
G|--9---9-------9--9----9-------7--9--7-----9--7------9----------------------|
D|---------------------------------------------------------------------------|
A|---------------------------------------------------------------------------|
E|---------------------------------------------------------------------------|



| /  slide up
| ~  vibrato
============================================================================
Tap to rate this tab
# A B C D E F G H I J K L M N O P Q R S T U V W X Y Z