Song name
# A B C D E F G H I J K L M N O P Q R S T U V W X Y Z

Misc Unsigned Bands - Tsr - Descending China tab

Gtr I (D A D G B E) - 'TSR - Descending China'

 Intro
 4/4
  Gtr I
                                      PM|    PM|
                                                     4x
|----------------------------------------------------||--|
|---------------------------------------------------o||--|
|-------5--------5-----5--------4--------------------||--|
|----5--------5--------------4--------0-0-1--0-0-1---||--|
|-3--------3--------3-----2--------2--0-0-1--0-0-1--o||--|
|-------------------------------------0-0-1--0-0-1---||--|

_____________________________________________________________

 Chorus
  PM--------|       PM--------|
                                             4x
|--------------------------------------------||----|
|-------------------------------------------o||----|
|--------------------------------------------||----|
|-0--0-0--0-0--1----0--0-0--0-0--3---3---3---||----|
|-0--0-0--0-0--1----0--0-0--0-0--3---3---3--o||----|
|-0--0-0--0-0--1----0--0-0--0-0--3---3---3---||----|

__________________________________________________________

 Verse
       PM-------------|       PM----|     PM
|-------------------------------------------------|
|-------------------------------------------------|
|-------------------------------------------------|
|-0----0--0--0--0--0--0--0----0--0--0--1--0--1----|
|-0----0--0--0--0--0--0--0----0--0--0--1--0--1----|
|-0----0--0--0--0--0--0--0----0--0--0--1--0--1----|


       PM-------------|
|------------------------------------------------------|
|------------------------------------------------------|
|------------------------------------------------------|
|-0----0--0--0--0--0--0--8--8--8--8--10--10--10--10----|
|-0----0--0--0--0--0--0--8--8--8--8--10--10--10--10----|
|-0----0--0--0--0--0--0--8--8--8--8--10--10--10--10----|


       PM-------------|       PM----|     PM
|-------------------------------------------------|
|-------------------------------------------------|
|-------------------------------------------------|
|-0----0--0--0--0--0--0--0----0--0--0--1--0--1----|
|-0----0--0--0--0--0--0--0----0--0--0--1--0--1----|
|-0----0--0--0--0--0--0--0----0--0--0--1--0--1----|


       PM-------------|                           4x
|-------------------------------------------------||---|
|------------------------------------------------o||---|
|-------------------------------------------------||---|
|-0----0--0--0--0--0--0--8--8--8--8--8--7--7--7---||---|
|-0----0--0--0--0--0--0--8--8--8--8--8--7--7--7--o||---|
|-0----0--0--0--0--0--0--8--8--8--8--8--7--7--7---||---|

__________________________________________________________

 Chorus                                           Chorus
  PM--------|       PM--------|                 4x
|-----------------------------------------------||----|
|----------------------------------------------o||----|
|-----------------------------------------------||----|
|-0--0-0--0-0--1----0--0-0--0-0--3---3---3------||----|
|-0--0-0--0-0--1----0--0-0--0-0--3---3---3-----o||----|
|-0--0-0--0-0--1----0--0-0--0-0--3---3---3------||----|

_________________________________________________________

 Chorus                                        2x
|----------------------------------------------||----|
|---------------------------------------------o||----|
|----------------------------------------------||----|
|-0--0-0--0-0--1----0--0-0--0-0--3---8---7-----||----|
|-0--0-0--0-0--1----0--0-0--0-0--3---8---7----o||----|
|-0--0-0--0-0--1----0--0-0--0-0--3---8---7-----||----|

_________________________________________________________

 Bridge                                          
  PM----|                PM----|               2x
|----------------------------------------------||----|
|---------------------------------------------o||----|
|----------------------------------------------||----|
|-0--0--0--8--7--8--7----0--0--0--3--2--3--1---||----|
|-0--0--0--8--7--8--7----0--0--0--3--2--3--1--o||----|
|-0--0--0--8--7--8--7----0--0--0--3--2--3--1---||----|

__________________________________________________________

 Verse
       PM-------------|       PM----|     PM
|-------------------------------------------------|
|-------------------------------------------------|
|-------------------------------------------------|
|-0----0--0--0--0--0--0--0----0--0--0--1--0--1----|
|-0----0--0--0--0--0--0--0----0--0--0--1--0--1----|
|-0----0--0--0--0--0--0--0----0--0--0--1--0--1----|


       PM-------------|
|------------------------------------------------------|
|------------------------------------------------------|
|------------------------------------------------------|
|-0----0--0--0--0--0--0--8--8--8--8--10--10--10--10----|
|-0----0--0--0--0--0--0--8--8--8--8--10--10--10--10----|
|-0----0--0--0--0--0--0--8--8--8--8--10--10--10--10----|


 Verse
       PM-------------|       PM----|     PM
|-------------------------------------------------|
|-------------------------------------------------|
|-------------------------------------------------|
|-0----0--0--0--0--0--0--0----0--0--0--1--0--1----|
|-0----0--0--0--0--0--0--0----0--0--0--1--0--1----|
|-0----0--0--0--0--0--0--0----0--0--0--1--0--1----|


       PM-------------|                           4x
|-------------------------------------------------||---|
|------------------------------------------------o||---|
|-------------------------------------------------||---|
|-0----0--0--0--0--0--0--8--8--8--8--8--7--7--7---||---|
|-0----0--0--0--0--0--0--8--8--8--8--8--7--7--7--o||---|
|-0----0--0--0--0--0--0--8--8--8--8--8--7--7--7---||---|

_________________________________________________________

 Chorus                                           Chorus
  PM--------|       PM--------|                 4x
|-----------------------------------------------||----|
|----------------------------------------------o||----|
|-----------------------------------------------||----|
|-0--0-0--0-0--1----0--0-0--0-0--3---3---3------||----|
|-0--0-0--0-0--1----0--0-0--0-0--3---3---3-----o||----|
|-0--0-0--0-0--1----0--0-0--0-0--3---3---3------||----|

________________________________________________________

 Chorus                                        2x
|----------------------------------------------||----|
|---------------------------------------------o||----|
|----------------------------------------------||----|
|-0--0-0--0-0--1----0--0-0--0-0--3---8---7-----||----|
|-0--0-0--0-0--1----0--0-0--0-0--3---8---7----o||----|
|-0--0-0--0-0--1----0--0-0--0-0--3---8---7-----||----|


 Bridge                                         
  PM----|                PM----|               2x   
|----------------------------------------------||----|
|---------------------------------------------o||----|
|----------------------------------------------||----|
|-0--0--0--8--7--8--7----0--0--0--3--2--3--1---||----|
|-0--0--0--8--7--8--7----0--0--0--3--2--3--1--o||----|
|-0--0--0--8--7--8--7----0--0--0--3--2--3--1---||----|

_________________________________________________________

 Verse
       PM-------------|       PM----|     PM
|-------------------------------------------------|
|-------------------------------------------------|
|-------------------------------------------------|
|-0----0--0--0--0--0--0--0----0--0--0--1--0--1----|
|-0----0--0--0--0--0--0--0----0--0--0--1--0--1----|
|-0----0--0--0--0--0--0--0----0--0--0--1--0--1----|


       PM-------------|
|------------------------------------------------------|
|------------------------------------------------------|
|------------------------------------------------------|
|-0----0--0--0--0--0--0--8--8--8--8--10--10--10--10----|
|-0----0--0--0--0--0--0--8--8--8--8--10--10--10--10----|
|-0----0--0--0--0--0--0--8--8--8--8--10--10--10--10----|


 Verse
       PM-------------|       PM----|     PM
|-------------------------------------------------|
|-------------------------------------------------|
|-------------------------------------------------|
|-0----0--0--0--0--0--0--0----0--0--0--1--0--1----|
|-0----0--0--0--0--0--0--0----0--0--0--1--0--1----|
|-0----0--0--0--0--0--0--0----0--0--0--1--0--1----|


       PM-------------|                           2x
|-------------------------------------------------||---|
|------------------------------------------------o||---|
|-------------------------------------------------||---|
|-0----0--0--0--0--0--0--8--8--8--8--8--7--7--7---||---|
|-0----0--0--0--0--0--0--8--8--8--8--8--7--7--7--o||---|
|-0----0--0--0--0--0--0--8--8--8--8--8--7--7--7---||---|

___________________________________________________________

 Chorus                                           Chorus
  PM--------|       PM--------|                 4x
|-----------------------------------------------||----|
|----------------------------------------------o||----|
|-----------------------------------------------||----|
|-0--0-0--0-0--1----0--0-0--0-0--3---3---3------||----|
|-0--0-0--0-0--1----0--0-0--0-0--3---3---3-----o||----|
|-0--0-0--0-0--1----0--0-0--0-0--3---3---3------||----|

____________________________________________________________

 Chorus                                        2x
|----------------------------------------------||----|
|---------------------------------------------o||----|
|----------------------------------------------||----|
|-0--0-0--0-0--1----0--0-0--0-0--3---8---7-----||----|
|-0--0-0--0-0--1----0--0-0--0-0--3---8---7----o||----|
|-0--0-0--0-0--1----0--0-0--0-0--3---8---7-----||----|

__________________________________________________________

 Bridge                                          
  PM----|                PM----|               2x
|----------------------------------------------||----|
|---------------------------------------------o||----|
|----------------------------------------------||----|
|-0--0--0--8--7--8--7----0--0--0--3--2--3--1---||----|
|-0--0--0--8--7--8--7----0--0--0--3--2--3--1--o||----|
|-0--0--0--8--7--8--7----0--0--0--3--2--3--1---||----|

__________________________________________________________

 Guitar Solo
|------------------------------------------------|
|------------------------------------------------|
|------------------------------------------------|
|-0--0--0--8--7--8--7----0--0--0--3--2--3--1-----|
|-0--0--0----------------0--0--0-----------------|
|-0--0--0----------------0--0--0-----------------|

                                                    4x
|---------------------------------------------------||---|
|--------------------------------------------------o||---|
|---------------------------------------------------||---|
|-0--0--0--8--7--8--10----0--0--0--8--7--8--10--8---||---|
|-0--0--0-----------------0--0--0------------------o||---|
|-0--0--0-----------------0--0--0-------------------||---|

_____________________________________________________________

 Out-Chorus                                          2x
|----------------------------------------------------||---|
|---------------------------------------------------o||---|
|----------------------------------------------------||---|
|-0--0--8--11--0--0--7--10--0--0--6--9--0--0--3--2---||---|
|-0--0---------0--0---------0--0--------0--0--3--2--o||---|
|-0--0---------0--0---------0--0--------0--0--3--2---||---|

_____________________________________________________________

                                                     4x
|----------------------------------------------------||---|
|---------------------------------------------------o||---|
|----------------------------------------------------||---|
|-0--0--8--11--0--0--7--10--0--0--6--9--0--0--3--2---||---|
|-0--0--8--11--0--0--7--10--0--0--6--9--0--0--3--2--o||---|
|-0--0--8--11--0--0--7--10--0--0--6--9--0--0--3--2---||---|

_______________________________________________________

|------|
|------|
|------| let ring for 4 measures
|-0----|
|-0----|
|-0----|

____________________________________________________________

 Outro
 4/4
  Gtr I
                                      PM|    PM|
                                                     2x
|----------------------------------------------------||--|
|---------------------------------------------------o||--|
|-------5--------5-----5--------4--------------------||--|
|----5--------5--------------4--------0-0-1--0-0-1---||--|
|-3--------3--------3-----2--------2--0-0-1--0-0-1--o||--|
|-------------------------------------0-0-1--0-0-1---||--|


(END)
Tap to rate this tab
# A B C D E F G H I J K L M N O P Q R S T U V W X Y Z