Song name
# A B C D E F G H I J K L M N O P Q R S T U V W X Y Z

Misc Unsigned Bands - 4th Degree Burn - Mythopeia In D Minor tab

Mythopoeia in D Minor - 4th Degree Burn
Tuning: Standard

Part 1

|---------------------|
|o-------------------o|
|---------------------|
|---------5-8-5-------|
|o--5-7-8-------8-7--o|
|---------------------|

Part 2

|---------------------------------------------------------------------|
|o-------------------------------------------------------------------o|
|---------------------------------------------------------------------|
|-----0-2-0-3-0-2-0---0-2-0-3-0-2-0---0-2-0-3-0-2-0-------------------|
|o--4---------------4---------------4-----------------------2h4s7s5--o|
|---------------------------------------------------3-5-6-5-----------|

Part 3 (4th time playin
  this stop here):V
|-------------------------------------|
|o--------5-------6------------------o|
|-------7-------7-------3-------5-----|
|-----7-------8-----------------------|
|o--5-------5---------5---5---7---7--o|
|-------------------3-------5---------|

Fill

|------------------------|
|------------------------|
|------------------------|
|--8-7-5-5-3-2-----------|
|--------------1-2-4-5\--|
|------------------------|

Part 4 (End)

|-------------------------------------------------------|
|-------------------------------------------------------|
|--------------------------------------------------7\---|
|----0-2-0-3-0-2-0---0-2-0-3-0-2-0---0-2-0-3-0-2-0-7\---|
|--4---------------4---------------4---------------5\---|
|--------------------------------------------------5\---|

Song Order:

Part 1 (4x)
Part 2 (2x)
Part 1 (4x)
Part 2 (2x)
Part 1 (8x)
Part 2 (4x)
Part 3 (4x)
Fill
Part 3 (4x)
Fill
Part 2 (2x)
Part 4
Tap to rate this tab
# A B C D E F G H I J K L M N O P Q R S T U V W X Y Z