Song name
# A B C D E F G H I J K L M N O P Q R S T U V W X Y Z

Misc Unsigned Bands - Bamfs - First Track tab

-------------------------------------------------------------------------------
			     First Track - BAMFs
-------------------------------------------------------------------------------
Tabbed by: MiddleMan		
Email: bamfsmiddleman@Yahoo.com

Tuning: standard

e|---------------------------------------------------------------------------|
B|---------------------------------------------------------------------------|
G|---------------------------------------------------------------------------|
D|---------------------------------------------------------------------------|
A|------5-7--777--77--7-7------7p5-------------------------------------------|
E|--5h7----------------------------7-5--555-55-5-5---------------------------|


e|---------------------------------------------------------------------------|
B|---------------------------------------------------------------------------|
G|---------------------------------------------------------------------------|
D|---------------------------------------------------------------------------|
A|------5-7--777--77--7-7------7p5-------------------------------------------|
E|--5h7----------------------------7-5////////////---------------------------|


e|---------------------------------------------------------------------------|
B|---------------------------------------------------------------------------|
G|---------------------------------------------------------------------------|
D|---------------------------------------------------------------------------|
A|------5-7--777--77--7-7------7p5-------------------------------------------|
E|--5h7----------------------------7-5--555-55-5-5---------------------------|


e|---------------------------------------------------------------------------|
B|---------------------------------------------------------------------------|
G|---------------------------------------------------------------------------|
D|---------------------------------------------------------------------------|
A|------5-7--777--77--7-7------7p5-------------------------------------------|
E|--5h7----------------------------7-5////////////---------------------------|




| /  slide up
| \  slide down
| h  hammer-on
| p  pull-off
| ~  vibrato
| +  harmonic
| x  Mute note
===============================================================================
Tap to rate this tab
 
# A B C D E F G H I J K L M N O P Q R S T U V W X Y Z