Song name
# A B C D E F G H I J K L M N O P Q R S T U V W X Y Z

Misc Unsigned Bands - Lifeinjersey - Skeletons tab

Help us improve GuitareTab! Take a short survey!
Heres the intro to the new single off LifeInJersey's Skeletons EP.. this is my first tab 
if you can correct this.. email me at waltzxbutler@hotmail.com and tell me! im like 75% 
this is right. ha

Guitar One (Carson)
      PM PM    PM PM PM PM PM    PM PM    PM PM PM PM PM
D#||--------------------------|--------------------------|
A#||--------------------------|--------------------------|
F#||--4--4-----4--4--4--4--4--|--------------------------|
C#||--4--4-----4--4--4--4--4--|--5--5-----5--5--5--5--5--|
G#||--2--2-----2--2--2--2--2--|--5--5-----5--5--5--5--5--|
D#||--------------------------|--3--3-----3--3--3--3--3--|


  PM PM    PM PM PM PM PM    PM PM    PM PM PM PM PM
--------------------------|---------------------------||
--------------------------|---------------------------||
--------------------------|--2--2-----2--2--2--2--2--*||X3
--2--2-----2--2--2--2--2--|--2--2-----2--2--2--2--2--*||
--2--2-----2--2--2--2--2--|--0--0-----0--0--0--0--0---||
--0--0-----0--0--0--0--0--|---------------------------||


  PM PM    PM PM PM PM PM    PM PM    PM PM PM PM PM
  E  E  E  E  E  E  E  E     E  E  E  E  E  E  E  E
--------------------------|--------------------------|
--------------------------|--------------------------|
--4--4-----4--4--4--4--4--|--------------------------|
--4--4-----4--4--4--4--4--|--5--5-----5--5--5--5--5--|
--2--2-----2--2--2--2--2--|--5--5-----5--5--5--5--5--|
--------------------------|--3--3-----3--3--3--3--3--|


  PM PM    PM PM PM PM PM
--------------------------|--0-------------------|
--------------------------|--0-------------------|
--------------------------|--2-------------------|
--2--2-----2--2--2--2--2--|--2-------------------|
--2--2-----2--2--2--2--2--|--0-------------------|
--0--0-----0--0--0--0--0--|----------------------|

|--------------------------|
|--------------------------|
|--4--4--4--4--4--4--4--4--|
|--4--4--4--4--4--4--4--4--|
|--2--2--2--2--2--2--2--2--|
|--------------------------|

--------------------------|
--------------------------|
--2--2--2--2--2--2--2--2--|
--2--2--2--2--2--2--2--2--|
--0--0--0--0--0--0--0--0--|
--------------------------|

--------------------------|--------------------------|
--------------------------|--------------------------|
--------------------------|--------------------------|
--5--5--5--5--5--5--5--5--|--2--2--2--2--2--2--2--2--|
--5--5--5--5--5--5--5--5--|--2--2--2--2--2--2--2--2--|
--3--3--3--3--3--3--3--3--|--0--0--0--0--0--0--0--0--|

and the little guitar riff (chris) during the rock out vamp goes like this..


D#------------------10p--0-----------|------------------10p--0-----------|
A#--10p--0--12p--0----------10h--12--|--10p--0--12p--0----------10h--12--|
F#-----------------------------------|-----------------------------------|X2
C#-----------------------------------|-----------------------------------|
G#-----------------------------------|-----------------------------------|
D#-----------------------------------|-----------------------------------|

then both guitars join up playing

D#---------------------------------|--------------------------------|
A#---------------------------------|--------------------------------|
F#--19--19--19--19--19-----19--19--|--19-----19--19--19--19-----18--|
C#---------------------------------|--------------------------------|
G#--17--17--17--17--17-----17--17--|--17-----17--17--17--17-----16--|
D#---------------------------------|--------------------------------|


D#-----------------------------|-----------------------------||
A#-----------------------------|-----------------------------||
F#-----18--18----18-----18-----|--18-----18-----18--19-------||
C#-----------------------------|-----------------------------||
G#-----16--16----16-----16-----|--16-----16-----16--17-------||
D#-----------------------------|-----------------------------||


There you have it! the intro to Skeletons. I'm still working on figuring out the rest! 
and again.. correct me if i messed it up cuz this is my first tab!
Related for Lifeinjersey - Skeletons tab