Song name
# A B C D E F G H I J K L M N O P Q R S T U V W X Y Z

Misc Unsigned Bands - Whale Bones - Go Kaitlin tab

My best friend's sister is running for "Ms. Fallbrook" and we wrote a tasty jam about how she should win.

||-----------------|---------------|----------------|------------------||
||-----------------|---------------|----------------|------------------||
||-----------------|---------------|---------7-7----|---------7-7------||
||---------7-7-----|---------7-7---|---------7-7----|---------7-7------||
||---------7-7-----|---------7-7---|-----5~~~5-5----|-----5~~~5-5------||
||-----5~~~5-5-----|-----5~~~5-5---|----------------|------------------||
Repeat three times, then play: 
||-----------------|---------------|----------------|------------------||
||-----------------|---------------|----------------|------------------||
||-----9-9-9-------|---------------|-----7-7-7------|------------------||
||-----9-9-9-------|-----9-9-9-----|-----7-7-7------|-----7-7-7--------||
||-----7-7-7-------|-----9-9-9-----|-----5-5-5------|-----7-7-7--------||
||-----------------|-----7-7-7-----|----------------|-----5-5-5--------||
Repeat.
Tap to rate this tab
# A B C D E F G H I J K L M N O P Q R S T U V W X Y Z