Song name
# A B C D E F G H I J K L M N O P Q R S T U V W X Y Z

Misc Unsigned Bands - The William Howard Taft Band - East-bound Train Acoustic tab

band site:
www.myspace.com/thewilliamhowardtaftband


intro/verse:
----------------------------|
-4-444----4h64--------------|
-5-555-345-----8-88---------|
-5-555---------8-88-8--8----|
-3-333---------6-66-8--8----|
--------------------6--6----|

Chorus:

------------------------------|
-4-444--44-xx-8-888-----------|
-5-555--55-xx-x-xxx-888-7-xx--|
-5-555--55-xx-8-888-888-8-xx--|
-3-333--33-xx-6-666-666-6-xx--|
------------------------------|

-----------------------|
-----------------------|
-8-888-77-5-555-44-xx--|
-x-xxx-xx-x-xxx-xx-xx--|
-8-888-88-5-555-55-xx--|
-6-666-66-3-333-33-xx--|

Guitar Solo:

----------------------------------------|
-4-----------4h6-4-4------------4/6-7---|
-5------3h4h5------5-------3h4h5--------|
-5-3h4h5-----------5-3h4h5--------------|
-3-----------------3--------------------|
----------------------------------------|

-------------------------------------------|
--4-6h76-4---------------------------------|
--5--------5-3-3h4h5-4-3-------------------|
--5----------------------5-3-3h4h5-4-3-0---|
--3--------------------------------------3-|
-------------------------------------------|
Tap to rate this tab
 
# A B C D E F G H I J K L M N O P Q R S T U V W X Y Z