Song name
# A B C D E F G H I J K L M N O P Q R S T U V W X Y Z

Misc Unsigned Bands - Atemporary Refuge - Abercrombie Has Nothin On Jesus tab

Intro:
Guitar 1
e---------------------------------------------------|
b---------------------------------------------------|
g---------------5-5--------7-7--------5-5-----------| (x2)
d----5-5--------5-5--------7-7--------5-5-----------|
a----5-5--------3-3--------5-5--------3-3-----------|
E----3-3--------------------------------------------|

Guitar 2
e---------------------------------------------------|
b---------------13-13------15-15------13-13---------|
g----12-12------12-12------14-14------12-12---------| (x2)
d----12-12------10-10------12-12------10-10---------|
a----10-10------------------------------------------|
E---------------------------------------------------|

Guitar 3
e------------------------------------------------------------7p5------------|
b--------8--77-8-7-8h10p8p7------8-77-8-7-8~~~~~-----8-77-8-7----8p7--------|
g---------------------------------------------------------------------------|
d---------------------------------------------------------------------------|
a---------------------------------------------------------------------------|
E---------------------------------------------------------------------------|

e-----------------------------|
b--------8-77-8-7-8~~~~-------|
g-----------------------------| (x2)
d-----------------------------|
a-----------------------------|
E-----------------------------|




e---------------------------------------------------------------------------|
b---------------------------------------------------------------------------|
g----5-5--------------------------------------------------------------------|
d----5-5--------------------------------------------------------------------|
a----3-3--------------------------------------------------------------------|
E---------------------------------------------------------------------------|
Tap to rate this tab
# A B C D E F G H I J K L M N O P Q R S T U V W X Y Z