Song name
# A B C D E F G H I J K L M N O P Q R S T U V W X Y Z

Misc Unsigned Bands - Therefore I Am - Aurora tab

E-----------------------------------------------|
B-----------------------------------------------|
G-----------9-----------------------------------|
D---11-----------(X2)---------------------------|
A-9-----9---------------------------------------|
D-----------------------------------------------|

E----------------------------------|
B-------------------0--------------|(on 2nd time)
G------------9---------------------|
D-----11-------(X2)----------------|
A---------9------------------------|
D---0------------------------------|

Repeat around 10 times

E----------------------------|
B----------------------------|
G----------------------------|
D---44444---------00000000---|
A---44444---------00000000---|
D---44444---------00000000---|
Tap to rate this tab
# A B C D E F G H I J K L M N O P Q R S T U V W X Y Z