Song name
# A B C D E F G H I J K L M N O P Q R S T U V W X Y Z

Misc Unsigned Bands - Idyetz - Noname tab

AGroll@online.de


Verse

E-----------------------------|
B-----------------------------|
G--------------------------4~-|
D--6---6-4-6--6-4-6---6-4-----|
A-----------------------------|
E-----------------------------|

Chorus

E----------------------------|
B----------------------------|
G-------------14-13----------|
D---11>--14>--14-13----------|	3x
A---11>--14>--12-11----------|
E----9>--12>-----------------|


E----------------------------|
B----------------------------|
G-----11>>-------------------|
D-----11>>-------------------|
A------9>>-------------------|
E----------------------------|

Solo

E---------------------------------------|
B---------------------------------------|
G---------------------------------------|
D--16----16-14------16-14------16-14----|
A--------------16---------16---------14-|
E---------------------------------------|
Tap to rate this tab
# A B C D E F G H I J K L M N O P Q R S T U V W X Y Z