Song name
# A B C D E F G H I J K L M N O P Q R S T U V W X Y Z

Misc Unsigned Bands - Idyetz - Captain Cool tab

AGroll@online.de

www.idyetz.de.tl

Verse

E--------------------------|
B--------------------------|
G---11---------------------|
D---11------9---11---------|
A----9------9---11---------|
E-----------7----9---------|


Chorus

E--------------------------|
B--------------------------|
G--11----------------------|
D--11------9---------------|
A---9------9---------------|
E----------7---------------|
Tap to rate this tab
# A B C D E F G H I J K L M N O P Q R S T U V W X Y Z