Song name
# A B C D E F G H I J K L M N O P Q R S T U V W X Y Z

Misc Unsigned Bands - The Luminousaphotic - She Fades tab

She Fades - The LuminousAphotic
-------------------------------------------------------------------------------
Tabbed by:Tom Kat
Email:

Tuning:
Intro (Clean)
e|-------------------------------------10101010101010101010101010101010--------|
B|-------------------9999999999999999--10101010101010101010101010101010--------|
G|-9999999999999999--xxxxxxxxxxxxxxxx--x-x-x-x-x-x-x-x-x-x-x-x-x-x-x-x---------|
D|-7777777777777777--7777777777777777--7-7-7-7-7-7-7-7-7-7-7-7-7-7-7-7---------|
A|-----------------------------------------------------------------------------|
D|-----------------------------------------------------------------------------|
Intro (Continued)                       Intro Clean X2
e|-----------------------------------------------------------------------------|
B|-9999999999999999------------------------------------------------------------|
G|-xxxxxxxxxxxxxxxx------------------------------------------------------------|
D|-7777777777777777------------------------------------------------------------|
A|-----------------------------------------------------------------------------|
D|-----------------------------------------------------------------------------|
  Intro (Distortion)                    Intro Distortion X2
e|----------------------------------------------------------------------------|
B|----------------------------------------------------------------------------|
G|-------------------9999999999999999--4444444444444444--7777777777777-9------|
D|-7777777777777777--9999999999999999--4444444444444444--7777777777777-9------|
A|-7777777777777777--7777777777777777--2222222222222222--5555555555555-7------|
D|-7777777777777777-----------------------------------------------------------|


 Verse 1       Gtr 1.                  Verse 1 X2
e|-------------------------------------------------------------------------------|
B|-------------------------------------------------------------------------------|
G|-------9~----4~----7~----------------------------------------------------------|
D|-7~----9~----4~----7~----------------------------------------------------------|
A|-7~----7~----2~----5~----------------------------------------------------------|
D|-7~----------------------------------------------------------------------------|

  Verse 1      Gtr. 2                 X2
e|----------------------------------10-10-10-10-10-10-10-10--------------------|
B|------------------9-9-9-9-9-9-9-9-------------------------9-9-9-9-9-9-9-9----|
G|--9-9-9-9-9-9-9-9------------------------------------------------------------|
D|-7-7-7-7-7-7-7-7-7-7-7-7-7-7-7-7-7-7-7-7-7-7-7-7-7-7-7-7-7-7-7-7-7-7-7-7-7---|
A|-----------------------------------------------------------------------------|
D|-----------------------------------------------------------------------------|

 Chorus                       Gtr. 1 & 2       X2
e|-----------------------------------------------------------------------------|
B|-----------------------------------------------------------------------------|
G|-------------------9999999999999999--4444444444444444--7777777777777-9-------|
D|-7777777777777777--9999999999999999--4444444444444444--7777777777777-9-------|
A|-7777777777777777--7777777777777777--2222222222222222--5555555555555-7-------|
D|-7777777777777777------------------------------------------------------------|
 Breakdown  (Guitar 1 Pays Verse 1)  Gtr. 2
e|-----------------------------------------------------------------------------|
B|-----------------------------------------------------------------------------|
G|-1111111111111111--4444444444444444--666666666666666666--7777777777777777----|
D|-9999999999999999--2222222222222222--444444444444444444--5555555555555555----|
A|-9999999999999999--2222222222222222--444444444444444444--5555555555555555----|
E|-----------------------------------------------------------------------------|
 Bridge   (Gtr. 1 Plays Same as Verses) Gtr. 2
e|-----------------------------------------------------------------------------|
B|-----------------------------------------------------------------------------|
G|-------9767h6-------97676----------9767h6-------97676------------------------|
D|-6h7p6--------6h7p6-------7--6h7p6--------6h7p6-------7----------------------|
A|-----------------------------------------------------------------------------|
D|-----------------------------------------------------------------------------|

Order of Song:
Intro (Clean) X2
Intro (Distortion) X2
Verse 1 X2
Chorus X2
Breakdown X1
Verse 2 (Same as Verse 1) X2
Chorus X2
Breakdown(On Second Breakdown, Strike Each Chord Once and Let Ring Out)X2
Bridge X2
Chorus X4

You shouldn't have any questions about this song because I write all of our bands songs.

Peace BroHas
Tom Kat


| /  slide up
| \  slide down
| h  hammer-on
| p  pull-off
| ~  vibrato
| +  harmonic
| x  Mute note
Tap to rate this tab
# A B C D E F G H I J K L M N O P Q R S T U V W X Y Z