Guitaretab - guitar tabs
Song name
# A B C D E F G H I J K L M N O P Q R S T U V W X Y Z

Misc Unsigned Bands - Dead Mess - Bleak tab

Bleak  Dead Mess
-----------------------------------------------------------------
Tabbed by: jeystar
Email: jey_star@hotmail.com
Tuning: D,A,D,G,B,e


Intro/Verse
e|---------------------------------------------------------------|
B|---------------------------------------------------------------|
G|--------------------------7-7-7-7-7-7-7-7----------------------|
D|--------------------------7-7-7-7-7-7-7-7----------------------|
A|---2-2-2-/-6-6-6----------5-5-5-5-5-5-5-5----------------------|
D|---2-2-2-/-6-6-6-----------------------------------------------|
[ Tab from: http://www.guitaretab.com/m/misc-unsigned-bands/86822.html ]
Pre Chorus
e|---------------------------------------------------------------|
B|---------------------------------------------------------------|
G|--5-5-5--------------------------------------------------------|
D|--5-5-5--------------------------------------------------------|
A|--3-3-3---3-3-3-4-4-4-4-4-4-4-4--------------------------------|
E|----------3-3-3-4-4-4-4-4-4-4-4--------------------------------|

Chorus
e|---------------------------------------------------------------|
B|---------------------------------------------------------------|
G|---------------------------------------------------------------|
D|---------------------------------------------------------------|
A|--5-5-4-4-6-6-3-3----------------------------------------------|
E|--5-5-4-4-6-6-3-3----------------------------------------------|

Break/Drum solo
e|---------------------------------------------------------------|
B|---------------------------------------------------------------|
G|---------------------------------------------------------------|
D|---------------------------------------------------------------|
A|--2---2---2---2222-7\2-----------------------------------------|
E|--2---2---2---2222-7\2-----------------------------------------|
Related for Dead Mess - Bleak tab