Song name
# A B C D E F G H I J K L M N O P Q R S T U V W X Y Z

Misc Unsigned Bands - Inhumane Corporal - Gates Of Hell tab

|--------------------------------------------------|
|--------------------------------------------------|
|--------------------------------------------------|
|------------6-----------4-----------6------6763---|
|------------4-----------2-----------4------4545---|
|0000000000----000000000---000000000----0000-------|

Use tremelo picking...

i droped the other 1 cuz it was too hard...n its just the 1st song..we dont need to 
ourselfs....so i made this easier 1....

do that part like like about 6 times n then move on to this part

|----------------------------------------------------|
|----------------------------------------------------|
|----------------------------------------------------|
|---------------------1-1h2-1------------------2-4-5-|
|------------------1-2--------0h2--------2-4-5-------|
|-00000000000-1-2----------------0-2-4-5-------------|

this part 2 times

right after that part....do this part

|----------------------------------------------------|
|----------------------------------------------------|
|----------------------------------------------------|
|---------------------1-1h2-1------------------4-6-7-|
|------------------1-2--------0h2--------2-4-5-------|
|-00000000000-1-2----------------0-2-4-5-------------|

this part 2 times

then is this part

|--------------------------------------------------|
|--------------------------------------------------|
|--------------------------------------------------|
|-------------6-6-7-6----------6-7-6-5-------------|
|-------------4-4-5-4----------4-5-4-3-------------|
|-0000000000----------00000000---------0000000000--|

that part 2 times

n then this part

|--------------------------------------------------|
|--------------------------------------------------|
|--------------------------------------------------|
|-------------6-6-7-6----------4-5-4-3-------------|
|-------------4-4-5-4----------2-3-2-1-------------|
|-0000000000----------00000000---------0000000000--|
Tap to rate this tab
# A B C D E F G H I J K L M N O P Q R S T U V W X Y Z