Guitaretab - guitar tabs
Song name
# A B C D E F G H I J K L M N O P Q R S T U V W X Y Z

Misc Unsigned Bands - Intrepid Aversion - Random Jammings tab

Random Jammings

Main Riff
e----------------------------------------------------------------------|
B----------------------------------------------------------------------|
G----------------------------------------------------------------------|
D----------------------------------------------------------------------|
A-------------7---7-----5---5-----7---7-----9---9---9---9--------------|
E-------------5---5-----3---3-----5---5-----7---7---7---7--------------|
[ Tab from: http://www.guitaretab.com/m/misc-unsigned-bands/86850.html ]
2nd riff
e----3-3--1-1--3-3--5-5-5-5------------------------------|
B--------------------------------------------------------|
G--------------------------------------------------------|
D--------------------------------------------------------|
A--------------------------------------------------------|
E--------------------------------------------------------|

3rd riff
e--------------------------------------------------|
B--------------------------------------------------|
G--------------------------------------------------|
D---8-8---10-10-10-10----11-11---------------------|    x5
A---8-8---10-10-10-10----11-11---------------------|
E--------------------------------------------------|


Outro
e--------------------------------------------------------|
B--------------------------------------------------------|
G--------------------------------------------------------|
D--------------------------------------------------------|
A--2--2----4----6---8----4---6---8-----4-----------------|
E--2--2----4----6---8----4---6---8-----4-----------------|
Related for Intrepid Aversion - Random Jammings tab