Guitaretab - guitar tabs
Song name
# A B C D E F G H I J K L M N O P Q R S T U V W X Y Z

Misc Unsigned Bands - Intrepid Aversion - Legacy Of Our Greatness Pt 1 tab

Legacy of Our Greatness, pt. 1


1st riff
e--------------------------------------------------------|
B--------------------------------------------------------|
G--------------------------------------------------------|
D--3--3---6--6--8-----3-3---6--6--8---9------------------|
A--3--3---6--6--8-----3--3---6--6--8---9-----------------|
E--1--1---4--4--6-----1--1---4--4--6---7-----------------|
[ Tab from: http://www.guitaretab.com/m/misc-unsigned-bands/86851.html ]
2nd riff
e----------------------------------------------------------------------------|
B----------------------------------------------------------------------------|
G----------------------------------------------------------------------------|
D---10---10---10----12-----10--10---12----10---12---14-----------------------|    x3
A---10---10---10----12-----10--10---12----10---12---14-----------------------|
E----8-----8-----8----10-----8----8----10----8----10---12--------------------|

after the 3 times, repeat with the chords all moved down 4 frets, same rhythm

this song has the same outro as random jammings

Lyrics
Aidan: All right were recording Dan. Dan were recording! 5 times.
Dan: 5 times, not 3?
Aidan: 5.
Related for Intrepid Aversion - Legacy Of Our Greatness Pt 1 tab