Guitaretab - guitar tabs
Song name
# A B C D E F G H I J K L M N O P Q R S T U V W X Y Z

Misc Unsigned Bands - Intrepid Aversion - Kiddie Ride On The Loose tab

Kiddie Ride on the Loose (This is the only song that features the keyboardist, Tim.)

Intro
The intro is a solo that goes something like this:
e--------------------------------------------------------------------------|
B--------------------------------------------------------------------------|
G-----3h5-5--3-5-5-5-3-5-5-5-3-5-5-5-5-3-5-5-5-3-5-5-5-3-5-5-5-------------|
D--------------------------------------------------------------------------|
A--------------------------------------------------------------------------|
E--------------------------------------------------------------------------|
[ Tab from: http://www.guitaretab.com/m/misc-unsigned-bands/86854.html ]
e----------------------------------15---------------|
B-------------------------17-15-----x4--------------|
G----7-9-9-6----------------------------------------|
D---------------------------------------------------|
A---------------------------------------------------|
E---------------------------------------------------|

Main riff
e-----------------------------------------------|
B-----------------------------------------------|
G-----------------------------------------------|
D---5---------4---------6-----------------------|
A---5---x4---4--x2----6---x2--------------------|
E---3---------2---------4-----------------------|

Lyrics
Aidan: This. Is..Kiddie Ride
Dan: On the Loose!
Aidan: Oh yeah!.(walks into cymbal) Oww!
Dan and Tim: (laughs)
Aidan: Righteous! Yes!

Aidan: Kiddie Ride!
Dan: On the Loose!

(shouts of Yes! and Yeah We Rock!)
Aidan: Ok then, so all the kiddies on that ride ended up injured or in the hospital
Dan: And rocked!
Aidan: And their parents sued.
Tim: And rocked out of their minds.
Aidan: Yeah their parents sued thethingthe uhh
Dan: Rock?
Tim: The kiddie ride company.
Dan: (laughs) Cuz it was way too on the loose for them.
Aidan: That was the Big Hen Company. (big hen is an inside joke)
Related for Intrepid Aversion - Kiddie Ride On The Loose tab