Song name
# A B C D E F G H I J K L M N O P Q R S T U V W X Y Z

Misc Unsigned Bands - Delta 9 - Epitaph tab

Help us improve GuitareTab! Take a short survey!
-------------------------------------------------------------------------------
			     EPITAPH - Delta 9
-------------------------------------------------------------------------------
Tabbed by: breakin_benjamn
Email: cdsackett@gmail.com

Tuning: Drop D (DADGBE)

Intro - 2x
e|-------------------------------------------------------------------------------|
B|-------------------------------------------------------------------------------|
G|-------------------------------------------------------------------------------|
D|----12-13-12--12-------12-13-12-----------16-14-16-17-16-------16-14-16-17-14/-|
A|--10--------13--13---10--------13-15/---14--------------17---14----------------|
d|10-----------------10-----------------14-------------------14------------------|

Chorus - 2x
e|---------------------------------------------------------------------------|
B|---------------------------------------------------------------------------|
G|9----9--9-10---10-10-10101010---9----9--9-10---10-10-10101010--------------|
D|12---12-1212---12-12-12121212---12---12-1212---12-12-12121212--------------|
A|0----0--0-0----0--0--0-0-0-0----0----0--0-0----0--0--0-0-0-0---------------|
d|0----0--0-0----0--0--0-0-0-0----0----0--0-0----0--0--0-0-0-0---------------|

e|---------------------------------------------------------------------------|
B|---------------------------------------------------------------------------|
G|---------------------------------------------------------------------------|
D|12---12-1210---10-10-10101010---12---12-1210---10-10-10101010--------------|
A|8----8--8-8----8--8--8-8-8-8----8----8--8-8----8--8--8-8-8-8---------------|
d|8----8--8-8----8--8--8-8-8-8----8----8--8-8----8--8--8-8-8-8---------------|

| /  slide up
| \  slide down
| h  hammer-on
| p  pull-off
| ~  vibrato
| +  harmonic
| x  Mute note
===============================================================================
Related for Delta 9 - Epitaph tab