Song name
# A B C D E F G H I J K L M N O P Q R S T U V W X Y Z

Misc Unsigned Bands - Intrepid Aversion - Legacy Of Our Greatness Pt 2 tab

Legacy of our Greatness, pt. 2


e----------------------------------------------|
B----------------3-----------------------------|
G----------------2---x5------------------------|
D---2-----------0------------------------------|
A---2---x4-------------------------------------|
E---0------------------------------------------|

Outro
e---------------------------------------------|
B----3-2--------------------------------------|
G---------3-2---------------------------------|
D---------------2~~~~~~~~---------------------|
A---------------------------------------------|
E---------------------------------------------|

Lyrics
Aidan: All right, were on.
Dan: We can start recording?
Aidan: Yep.
Dan: Lets go.
(both burp)
Dan: Excuse me.
Aidan: Excuse me, righteous.
Tap to rate this tab
# A B C D E F G H I J K L M N O P Q R S T U V W X Y Z