Song name
# A B C D E F G H I J K L M N O P Q R S T U V W X Y Z

Misc Unsigned Bands - A Day And A Deathwish - My Path tab

-Beat 1


 >Riff 1<                                                
|------------------------|------------------------|
|------------------------|------------------------|
|------------------------|------------------------|
|-------7--7--7--------8-|10--3--0~-------0~------|
|-------7--7--7--------8-|10--3--0~-------0~------|
|-0--0--7--7--7--0--0--8-|10--3--0~-------0~------|

                                                   

  P.M. . . . . . .                           
|------------------------|
|------------------------|
|------------------------|
|-0--0-----3--2--0--0----|
|-0--0-----3--2--0--0----|
|-0--0-----3--2--0--0----|


                                                   
 >Riff 2<
 P.M.         P.M.                                                                       
|------------------------|------------------------|-----|
|------------------------|------------------------|-----|
|------10/9---------5/7--|------------------------|-----|
|------10/9---------5/7--|----6--3--0-------------|-0~--|
|-------8/7---------3/5--|----6--3--0-------------|-0~--|
|-0--0--------0--0-------|-0--6--3--0-------------|-0~--|
                                                   


>Riff 3<
    P.M....
|------------------------|
|------------------------|
|------------------------|
|---3--2--0-----0--------|
|---3--2--0-----0--------|
|---3--2--0-----0--------|


 
 >Riff 4< (Beat 1)                                                  
|------------------------|
|------------------------|
|-7----------------------|
|-7--7--8--7--5--8--3--0-|
|-5--7--8--7--5--8--3--0-|
|----7--8--7--5--8--3--0-|
                                                   

 >Riff 5<                                                 
|------------------------|------------------|-----|
|------------------------|------------------|-----|
|------------------------|------------------|-----|
|-----7--7--7--------8---|-3--3--0----------|-0-0-|
|-----7--7--7--------8---|-3--3--0----------|-0-0-|
|--0--7--7--7--0--0--8---|-3--3--0----------|-0-0-|



 >Riff 6<
 P.M.. (3x)                          P.M....
|------------------------|------------------------|
|------------------------|------------------------|
|------------------------|------------------------|
|-3--2--0---0-0----------|--8--7--3--3--2--0---0--|
|-3--2--0---0-0----------|--8--7--3--3--2--0---0--|
|-3--2--0---0-0----------|--8--7--3--3--2--0---0--|



 >Riff 7<      
 <---------3x----------->   <----------1x---------->    
                                       P.M....
|------------------------| |------------------------|
|------------------------| |------------------------|
|-------10/9------5/7----| |------------------------|
|--0-0--10/9------5/7--0-| |--8--7--3--3--2--0----0-|
|--0-0---8/7------3/5--0-| |--8--7--3--3--2--0----0-|
|--0-0--------0--------0-| |--8--7--3--3--2--0----0-|
                          


Structure:

Riff 1: 1 x      Riff 5: 5 x
Riff 2: 16 x     Riff 6: 1 x
Riff 3: 1 x      Riff 7: 1 x
Riff 4: 3 x
Tap to rate this tab
 
# A B C D E F G H I J K L M N O P Q R S T U V W X Y Z