Song name
# A B C D E F G H I J K L M N O P Q R S T U V W X Y Z

Misc Unsigned Bands - Failure By Friend - Frustration tab

-------------------------------------------------------------------------------
			     FRUSTRATION - Failure By Friend
-------------------------------------------------------------------------------
Tabbed by: 
Email:

Tuning: played in drop D

INTRO:

e|------------------------------------55-5-5---------------------------------|
B|---22-2------00-0--------55-5----------------------------------------------|
G|-----0---------2-2h4-0-----4-4h55-----5-4-2-0------------------------------|
D|-------0h44----------------------------------------------------------------|
A|---------------------------------------------------------------------------|
E|---------------------------------------------------------------------------|

VERSE:
       
e|---------------------------5555555-----------------------------------------|
B|---22222---00000---55555---5555555-----------------------------------------|
G|---00000---22222---44444---5555555-----------------------------------------|
D|---------------------------------------------------------------------------|
A|---------------------------------------------------------------------------|
E|---------------------------------------------------------------------------|

CHORUS:

e|-----------------------------------------------5---------------------------|
B|----2--------------0-------------5-------------5---(x16)-------------------|
G|----4---(x16)------2---(x16)-----7---(x16)-----5---------------------------|
D|----4--------------2-------------7-----------------------------------------|
A|---------------------------------------------------------------------------|
E|---------------------------------------------------------------------------|

BRIDGE:

e|---------------------------------------------------------------------------|
B|-----2-2-0-----5-5-------9-9--9-----5--------------------------------------|
G|------0---------4---------7--7------x-(let ring)---------------------------|
D|------------------2---------9-------7--------------------------------------|
A|---------------------------------------------------------------------------|
E|---------------------------------------------------------------------------|


order:

intro 
verse 
chorus
intro
verse
chorus
bridge
chorus/outro



| /  slide up
| \  slide down
| h  hammer-on
| p  pull-off
| ~  vibrato
| +  harmonic
| x  Mute note
===============================================================================
Tap to rate this tab
 
# A B C D E F G H I J K L M N O P Q R S T U V W X Y Z