Song name
# A B C D E F G H I J K L M N O P Q R S T U V W X Y Z

Misc Unsigned Bands - Blood Rifles - Ripping Up Your Suicide Notes tab

Help us improve GuitareTab! Take a short survey!
THIS SONG HASN'T BEEN RELEASED BY THE BAND YET BUT THEIR EP IS IN PROGRESS

INTRO

e|--------------------------------|
B|--------------------------------|
G|--------------------------------|
D|---10--10--9--9--8-8-8--6-6-----|
A|---10--10--9--9--8-8-8--6-6-----|
E|----8---8--7--7--6-6-6--4-4-----|

e|--------------------------------|
B|--------------------------------|
G|--------------------------------|
D|--10-10-10--9-9-9--8-8-8--6-6-6-|
A|--10-10-10--9-9-9--8-8-8--6-6-6-|
E|---8--8--8--7-7-7--6-6-6--4-4-4-|


VERSES

e|--------------------------------|
B|--------------------------------|
G|--------------------------------|  X5
D|---10--10--9--9--8-8------------|
A|---10--10--9--9--8-8------------|               
E|----8---8--7--7--6-6------------|

BEFORE CHORUS

e|--------------------------------|
B|--------------------------------|
G|--------------------------------|  X4
D|----8-8-8-8-8-8-8-8-8-----------|
A|----8-8-8-8-8-8-8-8-8-----------|
E|----6-6-6-6-6-6-6-6-6-----------|

CHORUS

e|--------------------------------|
B|--------------------------------|
G|--------------------------------|  X4
D|----8-8-8-10-10--9-9-9-8--------|
A|----8-8-8-10-10--9-9-9-8--------|
E|----6-6-6--8--8--7-7-7-6--------|


CHORUS OUTRO

e|--------------------------------|
B|--------------------------------|
G|--------------------------------|  
D|----9-9-9-10--------------------|
A|----9-9-9-10--------------------|
E|----7-7-7--8--------------------|

e|--------------------------------|
B|--------------------------------|
G|--------------------------------|  
D|----9-9-9--8--------------------|
A|----9-9-9--8--------------------|
E|----7-7-7--6--------------------|

e|--------------------------------|
B|--------------------------------|
G|--------------------------------|  
D|----9-9-9-11--------------------|
A|----9-9-9-11--------------------|
E|----7-7-7--9--------------------|

e|--------------------------------|
B|--------------------------------|
G|--------------------------------|  
D|----9-9-9--7--------------------|
A|----9-9-9--7--------------------|
E|----7-7-7--5--------------------|


SOLO

e|----9-9-9-8-8-7-7-7-6---6-6-6-5--5-5-4-4---4-4-4-3---|
B|----9-9-9-8-8-7-7-7-6---6-6-6-5--5-5-4-4---4-4-4-3---|
G|----7-7-7-6-6-5-5-5-4---4-4-4-3--3-3-2-2---2-2-2-1---|  X2  
D|-----------------------------------------------------|
A|-----------------------------------------------------|
E|-----------------------------------------------------|




ENDING

e|-------------------------------------|
B|-------------------------------------|
G|-------------------------------------|  
D|----9-9-9-99999999-------------------|
A|----9-9-9-99999999-------------------|
E|----7-7-7-77777777-------------------|
Related for Blood Rifles - Ripping Up Your Suicide Notes tab