Song name
# A B C D E F G H I J K L M N O P Q R S T U V W X Y Z

Misc Unsigned Bands - New Age Murder - Deadball tab

Help us improve GuitareTab! Take a short survey!
----------------------------------------------------------------------------
			     DEADBALL - NEW AGE MURDER
----------------------------------------------------------------------------
Tabbed by: CHRISTIAN (RHYTHM)
Email:NEWAGEMURDER@HOTMAIL.CO.UK
WEBSITE: WWW.MYSAPCE.COM/NEWAGEMURDER

Tuning: RHYTHM: DROP D
        LEAD: NORMAL

---RHYTHM---

INTRO/ MAIN RIFF
e|-------------------------------------|
B|-------------------------------------|
G|-------------------------------------| X4
D|-------------------------------------|
A|--5-7-8-0---5-7-8-0---5-7-8-0--00-00-|
D|00-0-0----00-0-0----00-0-0-----00-00-|

VERSE TWO (PALM MUTE WHOLE THING)
e|-----------------------------|
B|-----------------------------|
G|-----------------------------| X4
D|-----------------------------|
A|00000000/22222222/44444444---|
D|00000000/22222222/44444444---|

CHORUS
e|-----------------------------------------|
B|---------------------44444444/66666666---|
G|-222-2-22------------55555555/77777777---| X 4
D|-000-0-00--555-5-55--XXXXXXXX/XXXXXXXX---|
A|-000-0-00--555-5-55--33333333/55555555---|
D|-000-0-00--555-5-55----------------------|

SOLO (PALM MUTE WHOLE THING)
e|-----------------------------------------------------------------------|
B|-----------------------------------------------------------------------|
G|--------------------------------------------------------------77777777-|
D|---------------------------------------------------------000--00000000-|
A|5---4---2---0--55555555-44444444-22222222-00000000--00000000--55555555-|
D|5---4---2---0--55555555-44444444-22222222-00000000--00000000--00000000-|

---LEAD---

INTRO(COME IN SECOND TIME RIFF IS PLAYED)
 
e|--------------------------------------------|
B|--------------------------------------------|
G|---7-9-10-0---7-9-10-0---7-9-10-0-----------|
D|-00-0-0-----00-0-0-----00-0-0-----77---77---|x2 
A|----------------------------------55---55---|
E|--------------------------------------------|

VERSE
(THE VERSE IS THE SAME AS THE LEAD'S RIFF PART) X2
 
CHORUS 
(DOES NOT PLAY IN FIRST CHORUS)            
e|------------------------------------------|
B|-333-3-33----------------44444444/6666666-|
G|-222-2-22--1212-12-1212--55555555/7777777-|
D|-000-0-00--1212-12-1212--XXXXXXXX/XXXXXXX-|
A|-----------1010-10-1010--33333333/5555555-|
E|------------------------------------------|

SOLO
(THE SOLO MAY CHANGE BUT WE'LL PUT THE ORIGINAL GUITAR PRO TAB ON THE SITE SOON )

OUTRO 
(THE OUTRO IS THE MAIN RIFF PLAYED FOUR TIMES. ONE BY ONE THE OTHER TWO PARTS FADE OUT)

INTRO
VERSE
CHORUS
RIFF
VERSE
CHORUS
SOLO
CHORUS
OUTRO
| /  slide up
| \  slide down
| h  hammer-on
| p  pull-off
| ~  vibrato
| +  harmonic
| x  Mute note
===============================================================================

Related for New Age Murder - Deadball tab