Song name
# A B C D E F G H I J K L M N O P Q R S T U V W X Y Z

Misc Unsigned Bands - Distortion Deadline - Fade To Utopia tab

Highlighted       Show chord diagrams
-------------------------------------------------------------------------------
			     FADE TO UTOPIA - Distortion Deadline
-------------------------------------------------------------------------------
Tabbed by: Tobias P.
Email: tobismaildrop@hotmail.com

Tuning: standart

1st part:
Dm - A#

2nd part / passage:
F - G - A#

tabbed chords
e|-5-5--6-6--| |-1--3--6--6--|
B|-6-6--6-6--| |-1--3--6--6--|
G|-7-7--7-7--| |-2--4--7--7--|
D|-7-7--8-8--| |-3--5--8--8--|
A|-5-5--8-8--| |-3--5--8--8--|
E|-5-5--6-6--| |-1--3--6--6--|


i haven't figured out the lead parts yet.
please write me if you know them.


| /  slide up
| \  slide down
| h  hammer-on
| p  pull-off
| ~  vibrato
| +  harmonic
| x  Mute note
===============================================================================
Tap to rate this tab
# A B C D E F G H I J K L M N O P Q R S T U V W X Y Z