Song name
# A B C D E F G H I J K L M N O P Q R S T U V W X Y Z

Misc Unsigned Bands - Exsistance - Above The Clouds tab

These are 100% correct, trust me, 100%...
And just to let you know before you start, the whole intro is palm muted.

Exsistance-Above the Clouds...

E---------------------------------------------------|
B---------------------------------------------------|
G----9--9--9--9--9--9--9--9--9--9--9--9--9--9--9--9-|
D---10-10-10-10-10-10-10-10-10-10-10-10-10-10-10-10-|
A----8--8--8--8--8--8--8--8--8--8--8--8--8--8--8--8-|
E---------------------------------------------------|P

E---------------------------------------------------|
B---------------------------------------------------|
G----3--3--3--3--3--3--3--3--3--3--3--3--3--3--3--3-|
D----3--3--3--3--3--3--3--3--3--3--3--3--3--3--3--3-|
A----1--1--1--1--1--1--1--1--1--1--1--1--1--1--1--1-|
E---------------------------------------------------|P
                                                     x2


E---------------------------------------------------|
B---------------------------------------------------|
G---10-10-10-10-10-10-10-10-10-10-10-10-10-10-10-10-|
D---11-11-11-11-11-11-11-11-11-11-11-11-11-11-11-11-|
A----9--9--9--9--9--9--9--9--9--9--9--9--9--9--9--9-|
E---------------------------------------------------|P

E---------------------------------------------------|
B---------------------------------------------------|
G----3--3--3--3--3--3--3--3--3--3--3--3--3--3--3--3-|
D----3--3--3--3--3--3--3--3--3--3--3--3--3--3--3--3-|
A----1--1--1--1--1--1--1--1--1--1--1--1--1--1--1--1-|
E---------------------------------------------------|P
                                                      x1


E---------------------------------------------------|
B---------------------------------------------------|
G---10-10-10-10-10-10-10-10-10-10-10-10-10-10-10-10-|
D---11-11-11-11-11-11-11-11-11-11-11-11-11-11-11-11-|
A----9--9--9--9--9--9--9--9--9--9--9--9--9--9--9--9-|
E---------------------------------------------------|P

E---------------------------------------------------|
B---------------------------------------------------|
G----8--8--8--8--8--8--8--8--8--8--8--8--8--8--8--8-|
D----8--8--8--8--8--8--8--8--8--8--8--8--8--8--8--8-|
A----6--6--6--6--6--6--6--6--6--6--6--6--6--6--6--6-|
E---------------------------------------------------|P

                                                       x1


P: Palm muted
Tap to rate this tab
# A B C D E F G H I J K L M N O P Q R S T U V W X Y Z