Song name
# A B C D E F G H I J K L M N O P Q R S T U V W X Y Z

Misc Unsigned Bands - Hethen - The World Stood Still tab

The World Stood Still (without solo) written by Robert MacAdam
intro and verse
e=---------------------------------------------------------=
B=--------7-------------7---------------10--------------12-=
G=-----6-----6-------6-----6---------9------9--------11----=
D=--4-----------4---------------4/7-------------7/9--------=
A=---------------------------------------------------------=
E=---------------------------------------------------------= 

e=---------------------------------------------------------=
B=--------7-------------7---------------10-----------------=
G=-----6-----6-------6-----6---------9------9----------9---=
D=--4-----------4---------------4/7------------7-----9-----=
A=------------------------------------------------7--------=
E=---------------------------------------------------------= 

chorus
e=---------------------------------------------------------=
B=---------------------------------------------------------=
G=---------------------------------------------------------=
D=-4-44--4-44--4-44-4-44-4/77-7-77-7/99-9-99---------------=
A=-4-44--4-44--4-44-4-44-4/77-7-77-7/99-9-99---------------=
E=-2-22--2-22--2-22-2-22-2/55-5-55-5/77-7-77---------------=

e=---------------------------------------------------------=
B=---------------------------------------------------------=
G=---------------------------------------------------------=
D=-4-44--4-44--4-44-4-44-4/77-7-77-7/22-2-22---------------=
A=-4-44--4-44--4-44-4-44-4/77-7-77-7/22-2-22---------------=
E=-2-22--2-22--2-22-2-22-2/55-5-55-5/00-0-00---------------=

riff before solo
e=---------------=
B=---------------=
G=---------------=
D=---------------=
A=-9-8-7-5--5-5/7=
E=-7-6-5-3--3-3/5=
Tap to rate this tab
# A B C D E F G H I J K L M N O P Q R S T U V W X Y Z