Song name
# A B C D E F G H I J K L M N O P Q R S T U V W X Y Z

Misc Unsigned Bands - Needlework - Insaan tab

NeedleworK
Insaan
http://www.savefile.com/projects/1034482

D#||------|-----------------------------|---------------------12-|
A#||------|--------------------12-------|--15b-----15~-----------|
F#||------|-----------------12----14p12-|------------------------|
C#||------|-----------7/14--------------|------------------------|
G#||------|-----------------------------|------------------------|
D#||------|-----------------------------|------------------------|


                                         
------12-----12-------------------------|
--15b----15b----15p12-------------------|
----------------------14r-12----12/9----|
-----------------------------14---------|
----------------------------------------|
--------------------------------------7-|


                                                                           
--------------------------------------------------------------------------|
--------------------------------------------------------------------------|
--------------------------4-----------4h5h7p5p4/5h7h9p7p5-----------------|
--------4-----------4h5h7---7p5p4h5h7---------------------9p7p5-----------|
--3h5h7---7p5p3h5h7---------------------------------------------9p7p5h7h9-|
--------------------------------------------------------------------------|


                                                              
---------------------7h8h10p8p7----7-------------------------|
--------------7h8h10------------10---10p8p7h8h10p8p7---------|
--------5h7h9----------------------------------------9---9/--|
--5h7h9------------------------------------------------------|
-------------------------------------------------------7-7/--|
-------------------------------------------------------------|


                                                                          
------12----12----12----------------|------12----12----12-15b----15--12--|
--15b----15b---15b------------------|--15b----15b---15b------------------|
---------------------14b----14--12--|------------------------------------|
------------------------------------|------------------------------------|
------------------------------------|------------------------------------|
------------------------------------|------------------------------------|


                                                                     
------12----12----12----------------|------------------------------||
--15b----15b---15b------------------|------------------------------||
---------------------14b----14--12--|--14r-12----12-----7--9~------||
------------------------------------|---------14----14-------------||
------------------------------------|------------------------------||
------------------------------------|------------------------------||


Tap to rate this tab
# A B C D E F G H I J K L M N O P Q R S T U V W X Y Z