Song name
# A B C D E F G H I J K L M N O P Q R S T U V W X Y Z

Misc Unsigned Bands - Motocade - Bombs Away tab

http://www.myspace.com/motocade
Guitar 1 Main riff
e|--------------------------------------------------------------------------|
B|--------------------------------------------------------------------------|
G|--------------------------------------------------------------------------|
D|-8-8-8-8--10--12---8--8-8-8--10-12----------------------------------------|
A|--------------------------------------------------------------------------|
E|--------------------------------------------------------------------------|

Guitar 2 Main Riff
e|---------------------------------------------------------------------------|
B|---------------------------------------------------------------------------|
G|---------------------------------------------------------------------------|
D|---------------------------------------------------------------------------|
A|--x--x--x--x--x--x--x--x-x-x-x-x-x-x-x-x-x-x-x-x-x-x-x-x-x-x-x-x-x-x-x-x---|
E|-10-10-10-10-10-10-10-10-8-8-8-8-8-8-8-8-6-6-6-6-6-6-6-6-1-1-1-1-1-1-1-1---|

e|--------------------------------------------------------------------------|
B|--------------------------------------------------------------------------|
G|--------------------------------------------------------------------------|
D|--------------------------------------------------------------------------|
A|-x-x-x-x-x-x-x-x-x-x-x-x-x-x-x-x-x-x-x-x-x-x-x-x-x-x-x-x-x-x-x-x----------|
E|-3-3-3-3-3-3-3-3-3-3-3-3-3-3-3-3-3-3-3-3-3-3-3-3-3-3-3-3-3-3-3-3----------|

Solo

e|--------------------------------------------------------------------------|
B|--------------------------------------------------------------------------|
G|-19-19-19-19-19-19-19-19-17-17-17-17-17-17-17-17-22-22-22-22-22-22-22-22--|
D|--------------------------------------------------------------------------|
A|--------------------------------------------------------------------------|
E|--------------------------------------------------------------------------|

e|-20-20-20-20-20-20-20-20-18-18-18-18-18-18-18-18-18-18-18-18-18-18-18-18--|
B|--------------------------------------------------------------------------|
G|--------------------------------------------------------------------------|
D|--------------------------------------------------------------------------|
A|--------------------------------------------------------------------------|
E|--------------------------------------------------------------------------|

e|-18-18-18-18-18-18-18-18-18-18-18-18-18-18-18-18--------------------------|
B|--------------------------------------------------------------------------|
G|-------------------------------------------------19-19-19-19-19-19-19-19--|
D|--------------------------------------------------------------------------|
A|--------------------------------------------------------------------------|
E|--------------------------------------------------------------------------|

                                                               |----Bend----|
e|-------------------------------------------------18-18-18-18-20-20-20-20--|
B|--------------------------------------------------------------------------|
G|-17-17-17-17-17-17-17-17-22-22-22-22--------------------------------------|
D|-------------------------------------20-20-20-20--------------------------|
A|--------------------------------------------------------------------------|
E|--------------------------------------------------------------------------|

   ----Bend cont...----------------------------------------------------------|
e|-20-20-20-20-20-20-20-20-20-20-20-20---------------------------------------|
B|---------------------------------------------------------------------------|
G|---------------------------------------------------------------------------|
D|---------------------------------------------------------------------------|
A|---------------------------------------------------------------------------|
E|---------------------------------------------------------------------------|
Tap to rate this tab
 
# A B C D E F G H I J K L M N O P Q R S T U V W X Y Z