Song name
# A B C D E F G H I J K L M N O P Q R S T U V W X Y Z

Misc Unsigned Bands - Unholy Remains - Undead Assault tab

-------------------------------------------------------------------------------
			     Undead Assault - Unholy Remains
-------------------------------------------------------------------------------
Tabbed by: PS2178
Email: ps2178x@gmail.com

Tuning: Drop C (CGCFAD)

  Intro (GTR I & II) GTR II does the pick slide
D|---------------------------------------------------------------------------|
A|---------------------------------------------------------------------------|
F|---------------------------------------------------------------------------|
C|-0=------------------------------------------------------------------------|
G|-0=------------------------------------------------------------------------|
C|-0=----------------X\------------------------------------------------------|


  Main Riff (GTR I & II)
D|---------|---------|---------|---------------------------------------------|
A|---------|---------|---------|---------------------------------------------|
F|---------|---------|---------|---------------------------------------------|
C|-0-0-6\5-|-0-0-4\3-|-0-0-2\1-|-0-0=----------------------------------------| 
G|-0-0-6\5-|-0-0-4\3-|-0-0-2\1-|-0-0=----------------------------------------|
C|-0-0-6\5-|-0-0-4\3-|-0-0-2\1-|-0-0=----------------------------------------|
   . .       . .       . .


  Pre-Verse (GTR I & II)
D|---------------------------------------------------------------------------|
A|---------------------------------------------------------------------------|
F|---------------------------------------------------------------------------|
C|-6-5-4-3=------------------------------------------------------------------|
G|-6-5-4-3=------------------------------------------------------------------|
C|-6-5-4-3=------------------------------------------------------------------|


  Verse/Chorus (GTR I & II)
D|---------|---------|-------------------------------------------------------|
A|---------|---------|-------------------------------------------------------|
F|---------|---------|-------------------------------------------------------|
C|-0-0-8\7-|-0-0-6\5-|-0-0---------------------------------------------------| 
G|-0-0-8\7-|-0-0-6\5-|-0-0---------------------------------------------------|
C|-0-0-8\7-|-0-0-6\5-|-0-0---------------------------------------------------|
   . .       . .


  Interlude
D|---------------------------------------------------------------------------|
A|---------------------------------------------------------------------------|
F|---------------------------------------------------------------------------|
C|---10----10----10-----10----10--------15-----15-----15-----15-----15-------|   
G|--8-----8------8-----8-----8--------12-----12-----12-----12-----12---------|
C|-8-----8------8-----8-----8-------12-----12-----12-----12-----12-----------|


  Solo (GTR I - GTR II Plays Main Riff)
D|---------------------------------------------------------------------------|
A|---------------------------------------------------------------------------|
F|-14-14-14-14-12h14p12h14p12-10-10-10h12p10h12p10-9-9-9h10p9h10p9-----------|
C|---------------------------------------------------------------------------|
G|---------------------------------------------------------------------------|
C|---------------------------------------------------------------------------|

D|---------------------------------------------------------------------------|
A|---------------------------------------------------------------------------|
F|---------------------------------------------------------------------------|
C|-10-12-10t-12-10t-12-10t-12-10t-12-10t-------------------------------------|
G|---------------------------------------------------------------------------|
C|---------------------------------------------------------------------------|


  Outro (GTR I & II) GTR II does the pick slide 
D|---------------------------------------------------------------------------|
A|---------------------------------------------------------------------------|
F|---------------------------------------------------------------------------|
C|-0=------------------------------------------------------------------------|
G|-0=------------------------------------------------------------------------|
C|-0=----------------X\------------------------------------------------------|


Order of Play
---------------
Intro
Main Riff x3
Pre-Verse
Verse/Chorus x3
Main Riff x3
Pre-Verse
Verse/Chorus x3
Interlude x2
Solo
Outro


Legend
----------------
| =  Let Ring
| X\ Pick Slide
| h  Hammer-on
| p  Pull-off
| .  Palm Mute
| t  Tremelo-Pick
===============================================================================
Tap to rate this tab
# A B C D E F G H I J K L M N O P Q R S T U V W X Y Z