Song name
# A B C D E F G H I J K L M N O P Q R S T U V W X Y Z

Misc Unsigned Bands - Neps - Ghost Girl tab

Legend-

. palm muted
/ slide


Intro:

     C	      D        Em	      C        D        Em
     . .      . .      . .	      . .      . .      . .
e|---------------------------------|---------------------------------------|
B|---------------------------------|--------------------------7------------|
G|---------------------------7-----|----------------------------7----------|
D|---5-5-5/7--7-7-7/9--9-9-----9---|--5-5-5/7--7-7-7/9--9-9----------------|
A|---3-3------5-5------7-7-7-------|--3-3------5-5------7-7-7--------------|
E|---------------------------------|---------------------------------------|

    C	     D        Em	        C        D        Em
    . .	     . .      . .	        . .      . .      . . . . . . . . 
e|-----------------------------------|-------------------------------------|
B|-----------------------------------|-------------------------------------|
G|--------------------------7--------|-------------------------------------|
D|--5-5-5/7--7-7-7/9--9-9-----9-7/5--|--5-5-5/7--7-7-7/9--9-9-9-9-9-9-9-9--|
A|--3-3------5-5------7-7-7----------|--3-3------5-5------7-7-7-7-7-7-7-7--|
E|-----------------------------------|-------------------------------------|

     C	      D        Em	      C        D        Em
     . .      . .      . .	      . .      . .      . .
e|---------------------------------|---------------------------------------|
B|---------------------------------|--------------------------7------------|
G|---------------------------7-----|----------------------------7----------|
D|---5-5-5/7--7-7-7/9--9-9-----9---|--5-5-5/7--7-7-7/9--9-9----------------|
A|---3-3------5-5------7-7-7-------|--3-3------5-5------7-7-7--------------|
E|---------------------------------|---------------------------------------|


    C	     D        Em	        C        D        Em
    . .	     . .      . .		. .      . .      
e|-----------------------------------|-------------------------------------|
B|-----------------------------------|-------------------------------------|
G|--------------------------7--------|-------------------------------------|
D|--5-5-5/7--7-7-7/9--9-9-----9-7/5--|--5-5-5/7--7-7-7/9--2----------------|
A|--3-3------5-5------7-7-7----------|--3-3------5-5------2----------------|
E|-----------------------------------|--------------------0----------------|

Verse I:

(muted power chords)

C-D-Em (4x)

Instrumental-

     C	      D        Em	      C        D        Em
     . .      . .      . .	      . .      . .      . .
e|---------------------------------|---------------------------------------|
B|---------------------------------|--------------------------7------------|
G|---------------------------7-----|----------------------------7----------|
D|---5-5-5/7--7-7-7/9--9-9-----9---|--5-5-5/7--7-7-7/9--9-9----------------|
A|---3-3------5-5------7-7-7-------|--3-3------5-5------7-7-7--------------|
E|---------------------------------|---------------------------------------|

    C	     D        Em	        C        D        Em
    . .	     . .      . .	        . .      . .      . . . . . . . . 
e|-----------------------------------|-------------------------------------|
B|-----------------------------------|-------------------------------------|
G|--------------------------7--------|-------------------------------------|
D|--5-5-5/7--7-7-7/9--9-9-----9-7/5--|--5-5-5/7--7-7-7/9--9-9-9-9-9-9-9-9--|
A|--3-3------5-5------7-7-7----------|--3-3------5-5------7-7-7-7-7-7-7-7--|
E|-----------------------------------|-------------------------------------|

Chorus

(power chords)

C-A-Em-A
C-A-Em----

     C	      D        Em	      C        D        Em
     . .      . .      . .	      . .      . .      . .
e|---------------------------------|---------------------------------------|
B|---------------------------------|--------------------------7------------|
G|---------------------------7-----|----------------------------7----------|
D|---5-5-5/7--7-7-7/9--9-9-----9---|--5-5-5/7--7-7-7/9--9-9----------------|
A|---3-3------5-5------7-7-7-------|--3-3------5-5------7-7-7--------------|
E|---------------------------------|---------------------------------------|

    C	     D        Em	        C        D        Em
    . .	     . .      . .	        . .      . .      . . . . . . . . 
e|-----------------------------------|-------------------------------------|
B|-----------------------------------|-------------------------------------|
G|--------------------------7--------|-------------------------------------|
D|--5-5-5/7--7-7-7/9--9-9-----9-7/5--|--5-5-5/7--7-7-7/9--9-9-9-9-9-9-9-9--|
A|--3-3------5-5------7-7-7----------|--3-3------5-5------7-7-7-7-7-7-7-7--|
E|-----------------------------------|-------------------------------------|

     C	      D        Em	      C        D        Em
     . .      . .      . .	      . .      . .      . .
e|---------------------------------|---------------------------------------|
B|---------------------------------|--------------------------7------------|
G|---------------------------7-----|----------------------------7----------|
D|---5-5-5/7--7-7-7/9--9-9-----9---|--5-5-5/7--7-7-7/9--9-9----------------|
A|---3-3------5-5------7-7-7-------|--3-3------5-5------7-7-7--------------|
E|---------------------------------|---------------------------------------|


    C	     D        Em	        C        D        Em
    . .	     . .      . .		. .      . .      
e|-----------------------------------|-------------------------------------|
B|-----------------------------------|-------------------------------------|
G|--------------------------7--------|-------------------------------------|
D|--5-5-5/7--7-7-7/9--9-9-----9-7/5--|--5-5-5/7--7-7-7/9--2----------------|
A|--3-3------5-5------7-7-7----------|--3-3------5-5------2----------------|
E|-----------------------------------|--------------------0----------------|


Verse II:

(muted power chords)

C-D-Em (4x)


Chorus:

(power chords)

C-A-Em-A
C-A-Em----

Solo (gonna tab this out soon)

That's it guys..
Tap to rate this tab
# A B C D E F G H I J K L M N O P Q R S T U V W X Y Z