Song name
# A B C D E F G H I J K L M N O P Q R S T U V W X Y Z

Misc Unsigned Bands - Neps - Little Miss tab

"Little Miss" Tab
by Neps

Legend

  . palm mute
  ~ let ring
  / slide

Rhythm hords used: D, A, Em, G, Bm, 


   D     A    Em     G    Bm

e|-0-| |-0-| |-0-| |-0-| |-0-|
B|-3-| |-3-| |-3-| |-3-| |-3-|
G|-2-| |-2-| |-0-| |-0-| |-4-|
D|---| |-2-| |-2-| |-0-| |-4-|
A|---| |-0-| |-2-| |-2-| |-2-|
E|---| |---| |-0-| |-3-| |---|


Intro-

e|--------0-----2-----------0-|--------0-----2--------0-|
B|--------------------3-------|-----------3-----3-------|
G|-----2-----------------2----|--------------------2----|
D|--0--------0-----0----------|-----2-------------------|
A|----------------------------|--0 ~ ~ ~ ~ ~ ~ ~ ~ ~ ~ -|
E|----------------------------|-------------------------|

e|--------0-----2--------0-|--------0-----2--------0-|
B|-----------3-----3-------|-----------3-----3-------|
G|--------------------2----|--------------------2----|
D|-------------------------|-------------------------|
A|-----2-------------------|-----2-------------------|
E|--0 ~ ~ ~ ~ ~ ~ ~ ~ ~ ~ -|--3 ~ ~ ~ ~ ~ ~ ~ ~ ~ ~ -|




Verse I

D                   A                 Em               G
  I'm not going to tell you what you want to hear from me
D                   A                 Em                               
  I'm not going to show you what you want to see sweet fantasies
       BM           A
  But lies just the same
   G                A  
  Dragging down a little girl
   Bm             A
  Into a tangled mess
         G
  That stole so many memories

Instrumental

e|--------0-----2-----------0-|--------0-----2--------0-|
B|--------------------3-------|-----------3-----3-------|
G|-----2-----------------2----|--------------------2----|
D|--0--------0-----0----------|-----2-------------------|
A|----------------------------|--0 ~ ~ ~ ~ ~ ~ ~ ~ ~ ~ -|
E|----------------------------|-------------------------|

e|--------0-----2--------0-|--------0-----2--------0-|
B|-----------3-----3-------|-----------3-----3-------|
G|--------------------2----|--------------------2----|
D|-------------------------|-------------------------|
A|-----2-------------------|-----2-------------------|
E|--0 ~ ~ ~ ~ ~ ~ ~ ~ ~ ~ -|--3 ~ ~ ~ ~ ~ ~ ~ ~ ~ ~ -|


D                  A               Em
  I'm not really sure if I should tell you this
        G
  But before I change my mind
D                    A      
  There's something you have to know
        Em
  Stuck in my throat
     G
  A story one of it's kind
            Bm
  About the boy
            A
  I used to be
         G                Bm
  And a girl I loved and you
	     A 
  A living legacy
        G
  Of a love that used to be

Chorus:

D                A               Em     G
  Little miss I know you want to cry
D                  A              Em                   G
  Don't worry I'm here now everything's gonna be all right
D                A
  Don't you ever be afraid
   Bm             G
  Hold your head high
D           A
  It was a night of sin
                 Em                  G         
  But it was an angel we brought to life

Instrumental:

e|--------0-----2-----------0-|--------0-----2--------0-|
B|--------------------3-------|-----------3-----3-------|
G|-----2-----------------2----|--------------------2----|
D|--0--------0-----0----------|-----2-------------------|
A|----------------------------|--0 ~ ~ ~ ~ ~ ~ ~ ~ ~ ~ -|
E|----------------------------|-------------------------|

e|--------0-----2--------0-|--------0-----2--------0-|
B|-----------3-----3-------|-----------3-----3-------|
G|--------------------2----|--------------------2----|
D|-------------------------|-------------------------|
A|-----2-------------------|-----2-------------------|
E|--0 ~ ~ ~ ~ ~ ~ ~ ~ ~ ~ -|--3 ~ ~ ~ ~ ~ ~ ~ ~ ~ ~ -|

Verse III:

D             A
  A father's kiss
              Em
  A father's love
                G
  A daughter's tears
                D
  A daughter's hug
D            A                      Em          G
  All these things that we've been cheated of
          Bm                  A
  The memories we could have had
     G            A             Bm
  If we had lived in a simpler world
             A               
  Oh little miss don't cry
            G                  A
  I'll be waiting for you in heaven..

Chorus:

D                A               Em     G
  Little miss I know you want to cry
D                  A              Em                   G
  Don't worry I'm here now everything's gonna be all right
D                A
  Don't you ever be afraid
   Bm             G
  Hold your head high
D           A
  It was a night of sin
                 Em                  G         
  But it was an angel we brought to life

(solo):

(rhythm chords above)


   D   A   Em  G

e|-0-|-0-|-0-|----------------------------10--9--7-----------
B|-3-|-3-|-3-|--------------------------------------10--8--7-
G|-2-|-2-|-0-|-----------------------------------------------
D|---|-2-|-2-|-----------------------------------------------
A|---|-0-|-2-|-----------------------------------------------
E|---|---|-0-|-3 ~ ~ ~ ~ ~ ~ ~ ~ ~ ~ ~ ~ --------------------

---------------------------------------|
---------------------------------------|
-9--7--6-------------------------------|
----------9--7-------------------------|
----------------10--9--7---------------|
--------------------------10--7--10/12-|

D-A-Em-G (3x)
Tap to rate this tab
 
# A B C D E F G H I J K L M N O P Q R S T U V W X Y Z