Song name
# A B C D E F G H I J K L M N O P Q R S T U V W X Y Z

Misc Unsigned Bands - Death Kvlt - Feel It Burn tab

Feel It Burn - Death Kvlt

THIS IS A INCORRECT TAB. DON'T RATE!
Part 1
 
|------------------|-------------------------|
|o-----------------|-------------------------|
|------------------|-------------------------|
|--2-2-2-2-2-2-2-2-|-4-4-4-4-4-4-4-4---------|
|o-3-3-3-3-3-3-3-3-|-2-2-2-2-2-2-2-2---------|
|------------------|-------------------------|

|-----------------|------------------|
|-----------------|-----------------o|
|-----------------|------------------|
|-3-3-3-3-3-3-3-3-|-3-3-3-3-3-3-3-3--|
|-5-5-5-5-5-5-5-5-|-1-1-1-1-1-1-1-1-o|
|-----------------|------------------|

Part 2

|----------------------------------|
|o--------------------------------o|
|----------------------------------|
|--3--5--3--5--2-----------3---2---|
|o-0--0--4--5--0--5--5-----0---0--o|
|-----------------3--2-------------|

Part 3 
   E5               C/E              A5               Eb/G
|-----------------|----------------|----------------|-----------------|
|o----------------|----------------|----------------|----------------o|
|-----------------|----------------|----------------|-----------------|
|--9--------------|-10-------------|-7--------------|-5---------------|
|o-7--------------|-7--------------|-7--------------|-6--------------o|
|-----------------|----------------|----------------|-----------------|

Tap to rate this tab
 
# A B C D E F G H I J K L M N O P Q R S T U V W X Y Z