Song name
# A B C D E F G H I J K L M N O P Q R S T U V W X Y Z

Misc Unsigned Bands - Alien Influence - Satans Trip tab

ok this is alien influence's new hit single "satans trip".and since the space cadets are 
buddys with alien influence, they both combined some cool riffs and made a song.its 
bands playing too, not just one band.

INTRO (space cadets part)
X4
--------------------|
--------------------|
--------------------|
--------------------|
--------7--5-5-5-5--|
5-5-5-5-----------7-|


VERSE (alien influence part)
X4
----------------------------------------------|
----------------------------------------------|
2-2-2-2-2-------------------------------------|
2-2-2-4-4-------------------------------------|
0-3-3-3-3-------------------------------------|
----------------------------------------------|

VERSE (alien influence part)
X4
-------------------------------|
-------------------------------|
2------------------------------|
2------------------------------|
0------------------------------|
-3-3-4-------------------------|

BRIDGE (space cadet part)
(with wah)
--------------1-1-1-1-1-1-2-2-2-2--------|
-12-12-14-14-----------------------------|
----------------------------------6------|
------------------------------------6----|
---------------------------------------6-|
-----------------------------------------|

SOLO! (both bands!)

------------12---13----14-14-0--------0-12--14----16-16-0-15-12----9-------|
0000000000-----0----0----------0------0---13---15----------------10--------|
---------------------------------6-6-6-------------------------------------|
---------------------------------------------------------------------------|
---------------------------------------------------------------------------|
-----------------------------------------------------------------------0-6-|

solo continued
12-13-0-13-13-0-12-13-0-13-13-0-12-12-0-12-12-----9----------------9-10-----|
---------------------------------------------------12-12-11-13-12--------11-|
----------------------------------------------------------------------------|
----------------------------------------------------------------------------|
----------------------------------------------------------------------------|
----------------------------------------------------------------------------|


whew that solo sure is unorganized but it blew me away, love the song, oh btw, im the 
of alien influence!!
Tap to rate this tab
 
# A B C D E F G H I J K L M N O P Q R S T U V W X Y Z