Song name
# A B C D E F G H I J K L M N O P Q R S T U V W X Y Z

Misc Unsigned Bands - Worthless Without - Up In Flames tab

Rhythm Guitar
      E   E   E   E  E   E   E   E      E   E  E  Q     
D||--12--12--12--12-----12--12--12--|--12--12----------|
A||--15--15--15--15-----15--15--15--|--15--15----------|
F||--14--14--14--14-----14--14--14--|--14--14----------|
C||--12--12--12--12-----12--12--12--|--12--12----------|
G||--12--12--12--12-----12--12--12--|--12--12----------|
C||--12--12--12--12-----12--12--12--|--12--12----------|


   E   E   E   E  E   E   E   E      E   E  E  Q     
--12--12--12--12-----12--12--12--|--12--12----------|
--13--13--13--13-----13--13--13--|--13--13----------|
--14--14--14--14-----14--14--14--|--14--14----------|
--12--12--12--12-----12--12--12--|--12--12----------|
--12--12--12--12-----12--12--12--|--12--12----------|
--12--12--12--12-----12--12--12--|--12--12----------|


   E   E   E   E  E   E   E   E      E   E  E  Q     
--12--12--12--12-----12--12--12--|--12--12----------|
--13--13--13--13-----13--13--13--|--13--13----------|
--15--15--15--15-----15--15--15--|--15--15----------|
--12--12--12--12-----12--12--12--|--12--12----------|
--12--12--12--12-----12--12--12--|--12--12----------|
--12--12--12--12-----12--12--12--|--12--12----------|


   E   E   E   E  E   E   E   E      E   E  E  Q     
--12--12--12--12-----12--12--12--|--12--12----------|
--13--13--13--13-----13--13--13--|--13--13----------|
--14--14--14--14-----14--14--14--|--14--14----------|
--15--15--15--15-----15--15--15--|--15--15----------|
--12--12--12--12-----12--12--12--|--12--12----------|
--12--12--12--12-----12--12--12--|--12--12----------|


   E   E   E   E  E   E   E   E      E   E  E  Q     
--12--12--12--12-----12--12--12--|--12--12----------|
--15--15--15--15-----15--15--15--|--15--15----------|
--14--14--14--14-----14--14--14--|--14--14----------|
--12--12--12--12-----12--12--12--|--12--12----------|
--12--12--12--12-----12--12--12--|--12--12----------|
--12--12--12--12-----12--12--12--|--12--12----------|


   E   E   E   E  E   E   E   E      E   E  E  Q     
--12--12--12--12-----12--12--12--|--12--12----------|
--13--13--13--13-----13--13--13--|--13--13----------|
--14--14--14--14-----14--14--14--|--14--14----------|
--12--12--12--12-----12--12--12--|--12--12----------|
--12--12--12--12-----12--12--12--|--12--12----------|
--12--12--12--12-----12--12--12--|--12--12----------|


   E   E   E   E  E   E   E   E      E   E  E  Q     
--12--12--12--12-----12--12--12--|--12--12----------|
--13--13--13--13-----13--13--13--|--13--13----------|
--15--15--15--15-----15--15--15--|--15--15----------|
--12--12--12--12-----12--12--12--|--12--12----------|
--12--12--12--12-----12--12--12--|--12--12----------|
--12--12--12--12-----12--12--12--|--12--12----------|


   E   E   E   E  E   E   E   E      E   E  E  Q     
--12--12--12--12-----12--12--12--|--12--12----------|
--13--13--13--13-----13--13--13--|--13--13----------|
--14--14--14--14-----14--14--14--|--14--14----------|
--15--15--15--15-----15--15--15--|--15--15----------|
--12--12--12--12-----12--12--12--|--12--12----------|
--12--12--12--12-----12--12--12--|--12--12----------|


   E   E   E   E  E   E   E   E      E   E  E  Q     
--12--12--12--12-----12--12--12--|--12--12----------|
--15--15--15--15-----15--15--15--|--15--15----------|
--14--14--14--14-----14--14--14--|--14--14----------|
--12--12--12--12-----12--12--12--|--12--12----------|
--12--12--12--12-----12--12--12--|--12--12----------|
--12--12--12--12-----12--12--12--|--12--12----------|


   E   E   E   E  E   E   E   E      E   E  E  Q     
--12--12--12--12-----12--12--12--|--12--12----------|
--13--13--13--13-----13--13--13--|--13--13----------|
--14--14--14--14-----14--14--14--|--14--14----------|
--12--12--12--12-----12--12--12--|--12--12----------|
--12--12--12--12-----12--12--12--|--12--12----------|
--12--12--12--12-----12--12--12--|--12--12----------|


   E   E   E   E  E   E   E   E      E   E  E  Q     
--12--12--12--12-----12--12--12--|--12--12----------|
--13--13--13--13-----13--13--13--|--13--13----------|
--15--15--15--15-----15--15--15--|--15--15----------|
--12--12--12--12-----12--12--12--|--12--12----------|
--12--12--12--12-----12--12--12--|--12--12----------|
--12--12--12--12-----12--12--12--|--12--12----------|


   E   E   E   E  E   E   E   E      E   E  E  Q     
--12--12--12--12-----12--12--12--|--12--12----------|
--13--13--13--13-----13--13--13--|--13--13----------|
--14--14--14--14-----14--14--14--|--14--14----------|
--15--15--15--15-----15--15--15--|--15--15----------|
--12--12--12--12-----12--12--12--|--12--12----------|
--12--12--12--12-----12--12--12--|--12--12----------|

       PM PM    PM PM    PM       PM PM    PM PM    PM  
   E   E  E  E  E  E  E  E     E  E  E  E  E  E  E  E   
----------------------------|--------------------------|
----------------------------|--6--6--6--6--6--6--6--6--|
---10--------10-------10----|--10-------10-------10----|
---8---8--8--8--8--8--8--8--|--8--8--8--8--8--8--8--8--|
---8---8--8--8--8--8--8--8--|--8--8--8--8--8--8--8--8--|
---8---8--8--8--8--8--8--8--|--8--8--8--8--8--8--8--8--|


       PM  PM      PM  PM      PM         PM  PM      PM  PM      PM  
   E   E   E   E   E   E   E   E      E   E   E   E   E   E   E   E   
----------------------------------|----------------------------------|
--12----------12----------12------|--12----------12----------12------|
----------------------------------|----------------------------------|
--10--10--10--10--10--10--10--10--|--10--10--10--10--10--10--10--10--|
--10--10--10--10--10--10--10--10--|--10--10--10--10--10--10--10--10--|
--10--10--10--10--10--10--10--10--|--10--10--10--10--10--10--10--10--|


       PM PM    PM PM    PM       PM PM    PM PM    PM  
   E   E  E  E  E  E  E  E     E  E  E  E  E  E  E  E   
----------------------------|--------------------------|
----------------------------|--6--6--6--6--6--6--6--6--|
---10--------10-------10----|--10-------10-------10----|
---8---8--8--8--8--8--8--8--|--8--8--8--8--8--8--8--8--|
---8---8--8--8--8--8--8--8--|--8--8--8--8--8--8--8--8--|
---8---8--8--8--8--8--8--8--|--8--8--8--8--8--8--8--8--|


       PM  PM      PM  PM      PM         PM  PM      PM  PM      PM  
   E   E   E   E   E   E   E   E      E   E   E   E   E   E   E   E   
----------------------------------|----------------------------------|
--12----------12----------12------|--12----------12----------12------|
----------------------------------|----------------------------------|
--10--10--10--10--10--10--10--10--|--10--10--10--10--10--10--10--10--|
--10--10--10--10--10--10--10--10--|--10--10--10--10--10--10--10--10--|
--10--10--10--10--10--10--10--10--|--10--10--10--10--10--10--10--10--|


   E   E   E   E   E   E   E   E      E   E   E   E   E   E   E   E   
--12--12--12--12--12--12--12--12--|--12--12--12--12--12--12--12--12--|
--15--15--15--15--15--15--15--15--|--15--15--15--15--15--15--15--15--|
--14--14--14--14--14--14--14--14--|--14--14--14--14--14--14--14--14--|
--12--12--12--12--12--12--12--12--|--12--12--12--12--12--12--12--12--|
--12--12--12--12--12--12--12--12--|--12--12--12--12--12--12--12--12--|
--12--12--12--12--12--12--12--12--|--12--12--12--12--12--12--12--12--|


   E   E   E   E   E   E   E   E      E   E   E   E   E   E   E   E   
--12--12--12--12--12--12--12--12--|--12--12--12--12--12--12--12--12--|
--13--13--13--13--13--13--13--13--|--13--13--13--13--13--13--13--13--|
--14--14--14--14--14--14--14--14--|--14--14--14--14--14--14--14--14--|
--12--12--12--12--12--12--12--12--|--12--12--12--12--12--12--12--12--|
--12--12--12--12--12--12--12--12--|--12--12--12--12--12--12--12--12--|
--12--12--12--12--12--12--12--12--|--12--12--12--12--12--12--12--12--|


   E   E   E   E   E   E   E   E      E   E   E   E   E   E   E   E   
--10--10--10--10--10--10--10--10--|--10--10--10--10--10--10--10--10--|
--13--13--13--13--13--13--13--13--|--13--13--13--13--13--13--13--13--|
--12--12--12--12--12--12--12--12--|--12--12--12--12--12--12--12--12--|
--10--10--10--10--10--10--10--10--|--10--10--10--10--10--10--10--10--|
--10--10--10--10--10--10--10--10--|--10--10--10--10--10--10--10--10--|
--10--10--10--10--10--10--10--10--|--10--10--10--10--10--10--10--10--|


   E   E   E   E   E   E   E   E      E   E   E   E   E   E   E   E   
---8---8---8---8---8---8---8---8--|---8---8---8---8---8---8---8---8--|
--11--11--11--11--11--11--11--11--|--11--11--11--11--11--11--11--11--|
--10--10--10--10--10--10--10--10--|--10--10--10--10--10--10--10--10--|
---8---8---8---8---8---8---8---8--|---8---8---8---8---8---8---8---8--|
---8---8---8---8---8---8---8---8--|---8---8---8---8---8---8---8---8--|
---8---8---8---8---8---8---8---8--|---8---8---8---8---8---8---8---8--|


   E   E   E   E   E   E   E   E      E   E   E   E   E   E   E   E   
--12--12--12--12--12--12--12--12--|--12--12--12--12--12--12--12--12--|
--15--15--15--15--15--15--15--15--|--15--15--15--15--15--15--15--15--|
--14--14--14--14--14--14--14--14--|--14--14--14--14--14--14--14--14--|
--12--12--12--12--12--12--12--12--|--12--12--12--12--12--12--12--12--|
--12--12--12--12--12--12--12--12--|--12--12--12--12--12--12--12--12--|
--12--12--12--12--12--12--12--12--|--12--12--12--12--12--12--12--12--|


   E   E   E   E   E   E   E   E      E   E   E   E   E   E   E   E   
--12--12--12--12--12--12--12--12--|--12--12--12--12--12--12--12--12--|
--13--13--13--13--13--13--13--13--|--13--13--13--13--13--13--13--13--|
--14--14--14--14--14--14--14--14--|--14--14--14--14--14--14--14--14--|
--12--12--12--12--12--12--12--12--|--12--12--12--12--12--12--12--12--|
--12--12--12--12--12--12--12--12--|--12--12--12--12--12--12--12--12--|
--12--12--12--12--12--12--12--12--|--12--12--12--12--12--12--12--12--|


   E   E   E   E   E   E   E   E      E   E   E   E   E   E   E   E   
--10--10--10--10--10--10--10--10--|--10--10--10--10--10--10--10--10--|
--13--13--13--13--13--13--13--13--|--13--13--13--13--13--13--13--13--|
--12--12--12--12--12--12--12--12--|--12--12--12--12--12--12--12--12--|
--10--10--10--10--10--10--10--10--|--10--10--10--10--10--10--10--10--|
--10--10--10--10--10--10--10--10--|--10--10--10--10--10--10--10--10--|
--10--10--10--10--10--10--10--10--|--10--10--10--10--10--10--10--10--|


   E   E   E   E   E   E   E   E      E   E   E   E   E   E   E   E   
---8---8---8---8---8---8---8---8--|---8---8---8---8---8---8---8---8--|
--11--11--11--11--11--11--11--11--|--11--11--11--11--11--11--11--11--|
--10--10--10--10--10--10--10--10--|--10--10--10--10--10--10--10--10--|
---8---8---8---8---8---8---8---8--|---8---8---8---8---8---8---8---8--|
---8---8---8---8---8---8---8---8--|---8---8---8---8---8---8---8---8--|
---8---8---8---8---8---8---8---8--|---8---8---8---8---8---8---8---8--|


   E   E   E   E  E   E   E   E      E   E  E  Q     
--12--12--12--12-----12--12--12--|--12--12----------|
--15--15--15--15-----15--15--15--|--15--15----------|
--14--14--14--14-----14--14--14--|--14--14----------|
--12--12--12--12-----12--12--12--|--12--12----------|
--12--12--12--12-----12--12--12--|--12--12----------|
--12--12--12--12-----12--12--12--|--12--12----------|


   E   E   E   E  E   E   E   E      E   E  E  Q     
--12--12--12--12-----12--12--12--|--12--12----------|
--13--13--13--13-----13--13--13--|--13--13----------|
--14--14--14--14-----14--14--14--|--14--14----------|
--12--12--12--12-----12--12--12--|--12--12----------|
--12--12--12--12-----12--12--12--|--12--12----------|
--12--12--12--12-----12--12--12--|--12--12----------|


   E   E   E   E  E   E   E   E      E   E  E  Q     
--12--12--12--12-----12--12--12--|--12--12----------|
--13--13--13--13-----13--13--13--|--13--13----------|
--15--15--15--15-----15--15--15--|--15--15----------|
--12--12--12--12-----12--12--12--|--12--12----------|
--12--12--12--12-----12--12--12--|--12--12----------|
--12--12--12--12-----12--12--12--|--12--12----------|


   E   E   E   E  E   E   E   E      E   E  E  Q     
--12--12--12--12-----12--12--12--|--12--12----------|
--13--13--13--13-----13--13--13--|--13--13----------|
--14--14--14--14-----14--14--14--|--14--14----------|
--15--15--15--15-----15--15--15--|--15--15----------|
--12--12--12--12-----12--12--12--|--12--12----------|
--12--12--12--12-----12--12--12--|--12--12----------|


   E   E   E   E  E   E   E   E      E   E  E  Q     
--12--12--12--12-----12--12--12--|--12--12----------|
--15--15--15--15-----15--15--15--|--15--15----------|
--14--14--14--14-----14--14--14--|--14--14----------|
--12--12--12--12-----12--12--12--|--12--12----------|
--12--12--12--12-----12--12--12--|--12--12----------|
--12--12--12--12-----12--12--12--|--12--12----------|


   E   E   E   E  E   E   E   E      E   E  E  Q     
--12--12--12--12-----12--12--12--|--12--12----------|
--13--13--13--13-----13--13--13--|--13--13----------|
--14--14--14--14-----14--14--14--|--14--14----------|
--12--12--12--12-----12--12--12--|--12--12----------|
--12--12--12--12-----12--12--12--|--12--12----------|
--12--12--12--12-----12--12--12--|--12--12----------|


   E   E   E   E  E   E   E   E      E   E  E  Q     
--12--12--12--12-----12--12--12--|--12--12----------|
--13--13--13--13-----13--13--13--|--13--13----------|
--15--15--15--15-----15--15--15--|--15--15----------|
--12--12--12--12-----12--12--12--|--12--12----------|
--12--12--12--12-----12--12--12--|--12--12----------|
--12--12--12--12-----12--12--12--|--12--12----------|


   E   E   E   E  E   E   E   E      E   E  E  Q     
--12--12--12--12-----12--12--12--|--12--12----------|
--13--13--13--13-----13--13--13--|--13--13----------|
--14--14--14--14-----14--14--14--|--14--14----------|
--15--15--15--15-----15--15--15--|--15--15----------|
--12--12--12--12-----12--12--12--|--12--12----------|
--12--12--12--12-----12--12--12--|--12--12----------|


       PM PM    PM PM    PM       PM PM    PM PM    PM  
   E   E  E  E  E  E  E  E     E  E  E  E  E  E  E  E   
----------------------------|--------------------------|
----------------------------|--6--6--6--6--6--6--6--6--|
---10--------10-------10----|--10-------10-------10----|
---8---8--8--8--8--8--8--8--|--8--8--8--8--8--8--8--8--|
---8---8--8--8--8--8--8--8--|--8--8--8--8--8--8--8--8--|
---8---8--8--8--8--8--8--8--|--8--8--8--8--8--8--8--8--|


       PM  PM      PM  PM      PM         PM  PM      PM  PM      PM  
   E   E   E   E   E   E   E   E      E   E   E   E   E   E   E   E   
----------------------------------|----------------------------------|
--12----------12----------12------|--12----------12----------12------|
----------------------------------|----------------------------------|
--10--10--10--10--10--10--10--10--|--10--10--10--10--10--10--10--10--|
--10--10--10--10--10--10--10--10--|--10--10--10--10--10--10--10--10--|
--10--10--10--10--10--10--10--10--|--10--10--10--10--10--10--10--10--|


       PM PM    PM PM    PM       PM PM    PM PM    PM  
   E   E  E  E  E  E  E  E     E  E  E  E  E  E  E  E   
----------------------------|--------------------------|
----------------------------|--6--6--6--6--6--6--6--6--|
---10--------10-------10----|--10-------10-------10----|
---8---8--8--8--8--8--8--8--|--8--8--8--8--8--8--8--8--|
---8---8--8--8--8--8--8--8--|--8--8--8--8--8--8--8--8--|
---8---8--8--8--8--8--8--8--|--8--8--8--8--8--8--8--8--|


       PM  PM      PM  PM      PM         PM  PM      PM  PM      PM  
   E   E   E   E   E   E   E   E      E   E   E   E   E   E   E   E   
----------------------------------|----------------------------------|
--12----------12----------12------|--12----------12----------12------|
----------------------------------|----------------------------------|
--10--10--10--10--10--10--10--10--|--10--10--10--10--10--10--10--10--|
--10--10--10--10--10--10--10--10--|--10--10--10--10--10--10--10--10--|
--10--10--10--10--10--10--10--10--|--10--10--10--10--10--10--10--10--|


   E   E   E   E   E   E   E   E      E   E   E   E   E   E   E   E   
--12--12--12--12--12--12--12--12--|--12--12--12--12--12--12--12--12--|
--15--15--15--15--15--15--15--15--|--15--15--15--15--15--15--15--15--|
--14--14--14--14--14--14--14--14--|--14--14--14--14--14--14--14--14--|
--12--12--12--12--12--12--12--12--|--12--12--12--12--12--12--12--12--|
--12--12--12--12--12--12--12--12--|--12--12--12--12--12--12--12--12--|
--12--12--12--12--12--12--12--12--|--12--12--12--12--12--12--12--12--|


   E   E   E   E   E   E   E   E      E   E   E   E   E   E   E   E   
--12--12--12--12--12--12--12--12--|--12--12--12--12--12--12--12--12--|
--13--13--13--13--13--13--13--13--|--13--13--13--13--13--13--13--13--|
--14--14--14--14--14--14--14--14--|--14--14--14--14--14--14--14--14--|
--12--12--12--12--12--12--12--12--|--12--12--12--12--12--12--12--12--|
--12--12--12--12--12--12--12--12--|--12--12--12--12--12--12--12--12--|
--12--12--12--12--12--12--12--12--|--12--12--12--12--12--12--12--12--|


   E   E   E   E   E   E   E   E      E   E   E   E   E   E   E   E   
--10--10--10--10--10--10--10--10--|--10--10--10--10--10--10--10--10--|
--13--13--13--13--13--13--13--13--|--13--13--13--13--13--13--13--13--|
--12--12--12--12--12--12--12--12--|--12--12--12--12--12--12--12--12--|
--10--10--10--10--10--10--10--10--|--10--10--10--10--10--10--10--10--|
--10--10--10--10--10--10--10--10--|--10--10--10--10--10--10--10--10--|
--10--10--10--10--10--10--10--10--|--10--10--10--10--10--10--10--10--|


   E   E   E   E   E   E   E   E      E   E   E   E   E   E   E   E   
---8---8---8---8---8---8---8---8--|---8---8---8---8---8---8---8---8--|
--11--11--11--11--11--11--11--11--|--11--11--11--11--11--11--11--11--|
--10--10--10--10--10--10--10--10--|--10--10--10--10--10--10--10--10--|
---8---8---8---8---8---8---8---8--|---8---8---8---8---8---8---8---8--|
---8---8---8---8---8---8---8---8--|---8---8---8---8---8---8---8---8--|
---8---8---8---8---8---8---8---8--|---8---8---8---8---8---8---8---8--|


   E   E   E   E   E   E   E   E      E   E   E   E   E   E   E   E   
--12--12--12--12--12--12--12--12--|--12--12--12--12--12--12--12--12--|
--15--15--15--15--15--15--15--15--|--15--15--15--15--15--15--15--15--|
--14--14--14--14--14--14--14--14--|--14--14--14--14--14--14--14--14--|
--12--12--12--12--12--12--12--12--|--12--12--12--12--12--12--12--12--|
--12--12--12--12--12--12--12--12--|--12--12--12--12--12--12--12--12--|
--12--12--12--12--12--12--12--12--|--12--12--12--12--12--12--12--12--|


   E   E   E   E   E   E   E   E      E   E   E   E   E   E   E   E   
--12--12--12--12--12--12--12--12--|--12--12--12--12--12--12--12--12--|
--13--13--13--13--13--13--13--13--|--13--13--13--13--13--13--13--13--|
--14--14--14--14--14--14--14--14--|--14--14--14--14--14--14--14--14--|
--12--12--12--12--12--12--12--12--|--12--12--12--12--12--12--12--12--|
--12--12--12--12--12--12--12--12--|--12--12--12--12--12--12--12--12--|
--12--12--12--12--12--12--12--12--|--12--12--12--12--12--12--12--12--|


   E   E   E   E   E   E   E   E      E   E   E   E   E   E   E   E   
--10--10--10--10--10--10--10--10--|--10--10--10--10--10--10--10--10--|
--13--13--13--13--13--13--13--13--|--13--13--13--13--13--13--13--13--|
--12--12--12--12--12--12--12--12--|--12--12--12--12--12--12--12--12--|
--10--10--10--10--10--10--10--10--|--10--10--10--10--10--10--10--10--|
--10--10--10--10--10--10--10--10--|--10--10--10--10--10--10--10--10--|
--10--10--10--10--10--10--10--10--|--10--10--10--10--10--10--10--10--|


   E   E   E   E   E   E   E   E      E   E   E   E   E   E   E   E         
---8---8---8---8---8---8---8---8--|---8---8---8---8---8---8---8---8--|-----|
--11--11--11--11--11--11--11--11--|--11--11--11--11--11--11--11--11--|-----|
--10--10--10--10--10--10--10--10--|--10--10--10--10--10--10--10--10--|-----|
---8---8---8---8---8---8---8---8--|---8---8---8---8---8---8---8---8--|-----|
---8---8---8---8---8---8---8---8--|---8---8---8---8---8---8---8---8--|-----|
---8---8---8---8---8---8---8---8--|---8---8---8---8---8---8---8---8--|-----|


   Q.      Q     E   Q        E   E   Q     E   E   E   E   
---8-------8-----8---8----|---L---8---8-----8---8---8---8--|
--10------10----10---8----|---L---8---8-----8---8---8---8--|
--10------10----10--10----|---L--10--10----10--10--10--10--|
---8-------8-----8---8----|---L---8---8-----8---8---8---8--|
---8-------8-----8---8----|---L---8---8-----8---8---8---8--|
---8-------8-----8---8----|---L---8---8-----8---8---8---8--|


   Q.      Q     E   Q        E   E   Q     E   E   E   E   
---8-------8-----8---8----|---L---8---8-----8---8---8---8--|
--11------11----11--10----|---L--10--10----10--10--10--10--|
--10------10----10--10----|---L--10--10----10--10--10--10--|
---8-------8-----8---8----|---L---8---8-----8---8---8---8--|
---8-------8-----8---8----|---L---8---8-----8---8---8---8--|
---8-------8-----8---8----|---L---8---8-----8---8---8---8--|


   Q.      Q     E   Q        E   E   Q     E   E   E   E   
---8-------8-----8---8----|---L---8---8-----8---8---8---8--|
--10------10----10---8----|---L---8---8-----8---8---8---8--|
--10------10----10--10----|---L--10--10----10--10--10--10--|
---8-------8-----8---8----|---L---8---8-----8---8---8---8--|
---8-------8-----8---8----|---L---8---8-----8---8---8---8--|
---8-------8-----8---8----|---L---8---8-----8---8---8---8--|


   Q.      Q     E   Q        E   E   Q     E   E   E   E   
---8-------8-----8---8----|---L---8---8-----8---8---8---8--|
--11------11----11--10----|---L--10--10----10--10--10--10--|
--10------10----10--10----|---L--10--10----10--10--10--10--|
---8-------8-----8---8----|---L---8---8-----8---8---8---8--|
---8-------8-----8---8----|---L---8---8-----8---8---8---8--|
---8-------8-----8---8----|---L---8---8-----8---8---8---8--|


   Q.      Q     E   Q        E   E   Q     E   E   E   E   
---8-------8-----8---8----|---L---8---8-----8---8---8---8--|
--10------10----10---8----|---L---8---8-----8---8---8---8--|
--10------10----10--10----|---L--10--10----10--10--10--10--|
---8-------8-----8---8----|---L---8---8-----8---8---8---8--|
---8-------8-----8---8----|---L---8---8-----8---8---8---8--|
---8-------8-----8---8----|---L---8---8-----8---8---8---8--|


   Q.      Q     E   Q        E   E   Q     E   E   E   E   
---8-------8-----8---8----|---L---8---8-----8---8---8---8--|
--11------11----11--10----|---L--10--10----10--10--10--10--|
--10------10----10--10----|---L--10--10----10--10--10--10--|
---8-------8-----8---8----|---L---8---8-----8---8---8---8--|
---8-------8-----8---8----|---L---8---8-----8---8---8---8--|
---8-------8-----8---8----|---L---8---8-----8---8---8---8--|


   Q.      Q     E   Q        E   E   Q     E   E   E   E   
---8-------8-----8---8----|---L---8---8-----8---8---8---8--|
--10------10----10---8----|---L---8---8-----8---8---8---8--|
--10------10----10--10----|---L--10--10----10--10--10--10--|
---8-------8-----8---8----|---L---8---8-----8---8---8---8--|
---8-------8-----8---8----|---L---8---8-----8---8---8---8--|
---8-------8-----8---8----|---L---8---8-----8---8---8---8--|


   Q.      Q     E   Q        E   E   Q     E   E   E   E   
---8-------8-----8---8----|---L---8---8-----8---8---8---8--|
--11------11----11--10----|---L--10--10----10--10--10--10--|
--10------10----10--10----|---L--10--10----10--10--10--10--|
---8-------8-----8---8----|---L---8---8-----8---8---8---8--|
---8-------8-----8---8----|---L---8---8-----8---8---8---8--|
---8-------8-----8---8----|---L---8---8-----8---8---8---8--|


   Q.      Q     E   Q        E   E   Q     E   E   E   E   
---8-------8-----8---8----|---L---8---8-----8---8---8---8--|
--10------10----10---8----|---L---8---8-----8---8---8---8--|
--10------10----10--10----|---L--10--10----10--10--10--10--|
---8-------8-----8---8----|---L---8---8-----8---8---8---8--|
---8-------8-----8---8----|---L---8---8-----8---8---8---8--|
---8-------8-----8---8----|---L---8---8-----8---8---8---8--|


   Q.      Q     E   Q        E   E   Q     E   E   E   E   
---8-------8-----8---8----|---L---8---8-----8---8---8---8--|
--11------11----11--10----|---L--10--10----10--10--10--10--|
--10------10----10--10----|---L--10--10----10--10--10--10--|
---8-------8-----8---8----|---L---8---8-----8---8---8---8--|
---8-------8-----8---8----|---L---8---8-----8---8---8---8--|
---8-------8-----8---8----|---L---8---8-----8---8---8---8--|


--8-----------------------|
-11-----------------------|
-10-----------------------|
--8-----------------------|
--8-----------------------|
--8-----------------------|
    HOLD.



   E   E   E   E   E   E   E   E      E   E   E   E   E   E   E   E   
--12--12--12--12--12--12--12--12--|--12--12--12--12--12--12--12--12--|
--15--15--15--15--15--15--15--15--|--15--15--15--15--15--15--15--15--|
--14--14--14--14--14--14--14--14--|--14--14--14--14--14--14--14--14--|
--12--12--12--12--12--12--12--12--|--12--12--12--12--12--12--12--12--|
--12--12--12--12--12--12--12--12--|--12--12--12--12--12--12--12--12--|
--12--12--12--12--12--12--12--12--|--12--12--12--12--12--12--12--12--|


   E   E   E   E   E   E   E   E      E   E   E   E   E   E   E   E   
--12--12--12--12--12--12--12--12--|--12--12--12--12--12--12--12--12--|
--13--13--13--13--13--13--13--13--|--13--13--13--13--13--13--13--13--|
--14--14--14--14--14--14--14--14--|--14--14--14--14--14--14--14--14--|
--12--12--12--12--12--12--12--12--|--12--12--12--12--12--12--12--12--|
--12--12--12--12--12--12--12--12--|--12--12--12--12--12--12--12--12--|
--12--12--12--12--12--12--12--12--|--12--12--12--12--12--12--12--12--|


   E   E   E   E   E   E   E   E      E   E   E   E   E   E   E   E   
--10--10--10--10--10--10--10--10--|--10--10--10--10--10--10--10--10--|
--13--13--13--13--13--13--13--13--|--13--13--13--13--13--13--13--13--|
--12--12--12--12--12--12--12--12--|--12--12--12--12--12--12--12--12--|
--10--10--10--10--10--10--10--10--|--10--10--10--10--10--10--10--10--|
--10--10--10--10--10--10--10--10--|--10--10--10--10--10--10--10--10--|
--10--10--10--10--10--10--10--10--|--10--10--10--10--10--10--10--10--|


   E   E   E   E   E   E   E   E      E   E   E   E   E   E   E   E   
---8---8---8---8---8---8---8---8--|---8---8---8---8---8---8---8---8--|
--11--11--11--11--11--11--11--11--|--11--11--11--11--11--11--11--11--|
--10--10--10--10--10--10--10--10--|--10--10--10--10--10--10--10--10--|
---8---8---8---8---8---8---8---8--|---8---8---8---8---8---8---8---8--|
---8---8---8---8---8---8---8---8--|---8---8---8---8---8---8---8---8--|
---8---8---8---8---8---8---8---8--|---8---8---8---8---8---8---8---8--|


   E   E   E   E   E   E   E   E      E   E   E   E   E   E   E   E   
--12--12--12--12--12--12--12--12--|--12--12--12--12--12--12--12--12--|
--15--15--15--15--15--15--15--15--|--15--15--15--15--15--15--15--15--|
--14--14--14--14--14--14--14--14--|--14--14--14--14--14--14--14--14--|
--12--12--12--12--12--12--12--12--|--12--12--12--12--12--12--12--12--|
--12--12--12--12--12--12--12--12--|--12--12--12--12--12--12--12--12--|
--12--12--12--12--12--12--12--12--|--12--12--12--12--12--12--12--12--|


   E   E   E   E   E   E   E   E      E   E   E   E   E   E   E   E   
--12--12--12--12--12--12--12--12--|--12--12--12--12--12--12--12--12--|
--13--13--13--13--13--13--13--13--|--13--13--13--13--13--13--13--13--|
--14--14--14--14--14--14--14--14--|--14--14--14--14--14--14--14--14--|
--12--12--12--12--12--12--12--12--|--12--12--12--12--12--12--12--12--|
--12--12--12--12--12--12--12--12--|--12--12--12--12--12--12--12--12--|
--12--12--12--12--12--12--12--12--|--12--12--12--12--12--12--12--12--|


   E   E   E   E   E   E   E   E      E   E   E   E   E   E   E   E   
--10--10--10--10--10--10--10--10--|--10--10--10--10--10--10--10--10--|
--13--13--13--13--13--13--13--13--|--13--13--13--13--13--13--13--13--|
--12--12--12--12--12--12--12--12--|--12--12--12--12--12--12--12--12--|
--10--10--10--10--10--10--10--10--|--10--10--10--10--10--10--10--10--|
--10--10--10--10--10--10--10--10--|--10--10--10--10--10--10--10--10--|
--10--10--10--10--10--10--10--10--|--10--10--10--10--10--10--10--10--|


   E   E   E   E   E   E   E   E      E   E   E   E   E   E   E   E   
---8---8---8---8---8---8---8---8--|---8---8---8---8---8---8---8---8--|
--11--11--11--11--11--11--11--11--|--11--11--11--11--11--11--11--11--|
--10--10--10--10--10--10--10--10--|--10--10--10--10--10--10--10--10--|
---8---8---8---8---8---8---8---8--|---8---8---8---8---8---8---8---8--|
---8---8---8---8---8---8---8---8--|---8---8---8---8---8---8---8---8--|
---8---8---8---8---8---8---8---8--|---8---8---8---8---8---8---8---8--|


   E   E   E   E   E   E   E   E      E   E   E   E   E   E   E   E   
--12--12--12--12--12--12--12--12--|--12--12--12--12--12--12--12--12--|
--15--15--15--15--15--15--15--15--|--15--15--15--15--15--15--15--15--|
--14--14--14--14--14--14--14--14--|--14--14--14--14--14--14--14--14--|
--12--12--12--12--12--12--12--12--|--12--12--12--12--12--12--12--12--|
--12--12--12--12--12--12--12--12--|--12--12--12--12--12--12--12--12--|
--12--12--12--12--12--12--12--12--|--12--12--12--12--12--12--12--12--|


   E   E   E   E   E   E   E   E      E   E   E   E   E   E   E   E   
--12--12--12--12--12--12--12--12--|--12--12--12--12--12--12--12--12--|
--13--13--13--13--13--13--13--13--|--13--13--13--13--13--13--13--13--|
--14--14--14--14--14--14--14--14--|--14--14--14--14--14--14--14--14--|
--12--12--12--12--12--12--12--12--|--12--12--12--12--12--12--12--12--|
--12--12--12--12--12--12--12--12--|--12--12--12--12--12--12--12--12--|
--12--12--12--12--12--12--12--12--|--12--12--12--12--12--12--12--12--|


   E   E   E   E  E   E   E   E      E   E   E   E   E   E   E   E   
--12--12--12--12-----12--12--12--|--12--12--12--12--12--12--12--12--|
--13--13--13--13-----13--13--13--|--13--13--13--13--13--13--13--13--|
--15--15--15--15-----15--15--15--|--15--15--15--15--15--15--15--15--|
--12--12--12--12-----12--12--12--|--12--12--12--12--12--12--12--12--|
--12--12--12--12-----12--12--12--|--12--12--12--12--12--12--12--12--|
--12--12--12--12-----12--12--12--|--12--12--12--12--12--12--12--12--|


   E   E   E   E  E   E   E   E      E   E   E   E   E   E   E   E   
--12--12--12--12-----12--12--12--|--12--12--12--12--12--12--12--12--|
--13--13--13--13-----13--13--13--|--13--13--13--13--13--13--13--13--|
--14--14--14--14-----14--14--14--|--14--14--14--14--14--14--14--14--|
--15--15--15--15-----15--15--15--|--15--15--15--15--15--15--15--15--|
--12--12--12--12-----12--12--12--|--12--12--12--12--12--12--12--12--|
--12--12--12--12-----12--12--12--|--12--12--12--12--12--12--12--12--|


   E   E   E   E  E   E   E   E      E   E   E   E   E   E   E   E   
--12--12--12--12-----12--12--12--|--12--12--12--12--12--12--12--12--|
--15--15--15--15-----15--15--15--|--15--15--15--15--15--15--15--15--|
--14--14--14--14-----14--14--14--|--14--14--14--14--14--14--14--14--|
--12--12--12--12-----12--12--12--|--12--12--12--12--12--12--12--12--|
--12--12--12--12-----12--12--12--|--12--12--12--12--12--12--12--12--|
--12--12--12--12-----12--12--12--|--12--12--12--12--12--12--12--12--|


   E   E   E   E  E   E   E   E      E   E   E   E   E   E   E   E   
--12--12--12--12-----12--12--12--|--12--12--12--12--12--12--12--12--|
--13--13--13--13-----13--13--13--|--13--13--13--13--13--13--13--13--|
--14--14--14--14-----14--14--14--|--14--14--14--14--14--14--14--14--|
--12--12--12--12-----12--12--12--|--12--12--12--12--12--12--12--12--|
--12--12--12--12-----12--12--12--|--12--12--12--12--12--12--12--12--|
--12--12--12--12-----12--12--12--|--12--12--12--12--12--12--12--12--|


   E   E   E   E  E   E   E   E      E   E   E   E   E   E   E   E   
--12--12--12--12-----12--12--12--|--12--12--12--12--12--12--12--12--|
--13--13--13--13-----13--13--13--|--13--13--13--13--13--13--13--13--|
--15--15--15--15-----15--15--15--|--15--15--15--15--15--15--15--15--|
--12--12--12--12-----12--12--12--|--12--12--12--12--12--12--12--12--|
--12--12--12--12-----12--12--12--|--12--12--12--12--12--12--12--12--|
--12--12--12--12-----12--12--12--|--12--12--12--12--12--12--12--12--|


   E   E   E   E  E   E   E   E      E   E   E   E   H         
--12--12--12--12-----12--12--12--|--12--12--12--12--12--------|
--13--13--13--13-----13--13--13--|--13--13--13--13--13--------|
--14--14--14--14-----14--14--14--|--14--14--14--14--14--------|
--15--15--15--15-----15--15--15--|--15--15--15--15--15--------|
--12--12--12--12-----12--12--12--|--12--12--12--12--12--------|
--12--12--12--12-----12--12--12--|--12--12--12--12--12--------|
Tap to rate this tab
 
# A B C D E F G H I J K L M N O P Q R S T U V W X Y Z