Guitaretab - guitar tabs
Song name
# A B C D E F G H I J K L M N O P Q R S T U V W X Y Z

Misc Unsigned Bands - Kbm - Make Believe tab

------------------------------------------------------------------------------
                             MAKE BELIEVE-KBM 
------------------------------------------------------------------------------
Tabbed by: Kyle McHugh
Email: mcq9@comcast.net
         
        As written by Kyle McHugh, a 7th Grade student/guitarist from HCS.
KBM is a music organization created from the minds of Kyle McHugh and Blake Maclellan, two rising musicians.
[ Tab from: http://www.guitaretab.com/m/misc-unsigned-bands/87405.html ]
Tuning: Drop D
 
  INTRO Xs 4
e|---------------------------------------------------------------------------|
B|---------------------------------------------------------------------------|
G|----2-----0-----0-------0--------------------------------------------------|
D|---2-----0----2-------0----------------------------------------------------|
A|-0----0-2---3-----3-2-----2------------------------------------------------|
D|---------------------------------------------------------------------------|
  Verse 1 Xs 2
e|---------------------------------------------------------------------------|
B|---------------------------------------------------------------------------|
G|---------------------------------------------------------------------------|
D|--12--12--12---7-7-7--9-9-9--5-5-5-----------------------------------------|
A|--12--12--12---7-7-7--9-9-9--5-5-5-----------------------------------------|
D|--12--12--12---7-7-7--9-9-9--5-5-5-----------------------------------------|
  Chorus Xs 2
e|---------------------------------------------------------------------------|
B|---------------------------------------------------------------------------|
G|---------------------------------------------------------------------------|
D|--12121212---7777---9999---5577--------------------------------------------|
A|--12121212---7777---9999---5577--------------------------------------------|
D|--12121212---7777---9999---5577--------------------------------------------|
  Verse 2 Xs 4
e|---------------------------------------------------------------------------|
B|---------------------------------------------------------------------------|
G|---------------------------------------------------------------------------|
D|-----12------7-----9-------5------7----------------------------------------|
A|---12-------7-----9-------5------7-----------------------------------------|
D|-12----12--7--7--9--9--5-----7---------------------------------------------|
  
 Chorus
  
  Bridge Xs 4
e|-5-101010101010--7-101010101010-9-101010101010101010101010-----------------|
B|---------------------------------------------------------------------------|
G|---------------------------------------------------------------------------|
D|---------------------------------------------------------------------------|
A|---------------------------------------------------------------------------|
D|---------------------------------------------------------------------------|
  Outro
e|----3-2---3-2---3-2-----3----2---2-----------------------------------------|
B|--3-----3-----3-----3------------3-----------------------------------------|
G|---------------------------------2-----------------------------------------|
D|---------------------------------------------------------------------------|
A|---------------------------------------------------------------------------|
D|---------------------------------------------------------------------------|


Related for Kbm - Make Believe tab