Song name
# A B C D E F G H I J K L M N O P Q R S T U V W X Y Z

Misc Unsigned Bands - December Is Decay - Fall Of You tab

                             Fall of You


                                                           December is Decay


Guitar I

      E  E   E  E  E   E  E  E      E   E   E   E   E   E   E   E
E||-----------------------------|----------------------------------|
B||-----------------------------|----------------------------------|
G||*----------------------------|----------------------------------|
D||*--------12--------12--------|--14----------14----------14------|
A||------9---------9---------9--|------12----------12----------12--|
D||---9---------9---------9-----|----------12----------12----------|


  E  E  E  E  E  E  E  E     E  E  E  E  E  Q.
--------------------------|-------------------------||
--------------------------|-------------------------||
--------------------------|------------------------*||
--------7--------7--------|--------5--------5------*||
-----5--------5--------5--|-----5--------5----------||
--5--------5--------5-----|--5--------5-------------||


   E  E   E  E  E   E  E  E      E   E   E   E   E   E   E   E
-----------------------------|----------------------------------|
-----------------------------|----------------------------------|
*----------------------------|----------------------------------|
*--------12--------12--------|--14----------14----------14------|
------9---------9---------9--|------12----------12----------12--|
---9---------9---------9-----|----------12----------12----------|


  E  E  E  E  E  E  E  E     E  E  E  E  E  Q.      4x  W
--------------------------|-------------------------||-------------------|
--------------------------|-------------------------||-------------------|
--------------------------|------------------------*||-------------------|
--------7--------7--------|--------5--------5------*||--L----------------|
-----5--------5--------5--|-----5--------5----------||-------------------|
--5--------5--------5-----|--5--------5-------------||-------------------|


    E  E   E  E  E   E  E  E      E   E   E   E   E   E   E   E
|-----------------------------|----------------------------------|
|-----------------------------|----------------------------------|
|*----------------------------|----------------------------------|
|*--------12--------12--------|--14----------14----------14------|
|------9---------9---------9--|------12----------12----------12--|
|---9---------9---------9-----|----------12----------12----------|


  E  E  E  E  E  E  E  E     E  E  E  E  E  Q.      4x
--------------------------|-------------------------||-------------------|
--------------------------|-------------------------||-------------------|
--------------------------|------------------------*||-------------------|
--------7--------7--------|--------5--------5------*||-------------------|
-----5--------5--------5--|-----5--------5----------||-------------------|
--5--------5--------5-----|--5--------5-------------||-------------------|


    E  E   E  E  E   E  E  E      E   E   E   E   E   E   E   E
|-----------------------------|----------------------------------|
|-----------------------------|----------------------------------|
|*----------------------------|----------------------------------|
|*--------12--------12--------|--14----------14----------14------|
|------9---------9---------9--|------12----------12----------12--|
|---9---------9---------9-----|----------12----------12----------|


  E  E  E  E  E  E  E  E     E  E  E  E  E  Q.      4x   W
--------------------------|-------------------------||--------------------|
--------------------------|-------------------------||--------------------|
--------------------------|------------------------*||*-------------------|
--------7--------7--------|--------5--------5------*||*--L----------------|
-----5--------5--------5--|-----5--------5----------||--------------------|
--5--------5--------5-----|--5--------5-------------||--------------------|


  Q    Q    Q    Q       W                   Q    Q     Q    Q     4x
----------------------|-------------------|------------------------||--------|
----------------------|-------------------|------------------------||--------|
----------------------|-------------------|-----------------------*||*-------|
--0----2----3----2----|-------------------|--7----9----10----9----*||*-------|
----------------------|-------------------|------------------------||--------|
----------------------|-------------------|------------------------||--------|


                                              E  E   E  E  E   E  E  E
-------|-------|--------||-------|-------||-----------------------------|
-------|-------|--------||-------|-------||-----------------------------|
-------|-------|-------*||-------|-------||*----------------------------|
-------|-------|-------*||-------|-------||*--------12--------12--------|
-------|-------|--------||-------|-------||------9---------9---------9--|
-------|-------|--------||-------|-------||---9---------9---------9-----|


   E   E   E   E   E   E   E   E     E  E  E  E  E  E  E  E
----------------------------------|--------------------------|
----------------------------------|--------------------------|
----------------------------------|--------------------------|
--14----------14----------14------|--------7--------7--------|
------12----------12----------12--|-----5--------5--------5--|
----------12----------12----------|--5--------5--------5-----|


  E  E  E  E  E  Q.      4x   W                   Q    Q    Q    Q
-------------------------||--------------------|----------------------|
-------------------------||--------------------|----------------------|
------------------------*||*-------------------|----------------------|
--------5--------5------*||*--L----------------|--0----2----3----2----|
-----5--------5----------||--------------------|----------------------|
--5--------5-------------||--------------------|----------------------|


  W                   Q    Q     Q    Q    10x
-------------------|------------------------||
-------------------|------------------------||
-------------------|-----------------------*||
-------------------|--7----9----10----9----*||
-------------------|------------------------||
-------------------|------------------------||

Guitar II


                                                                       4x
E||--------|-------|-------|--------||--------|-------|-------|--------||
B||--------|-------|-------|--------||--------|-------|-------|--------||
G||*-------|-------|-------|-------*||*-------|-------|-------|-------*||
D||*-------|-------|-------|-------*||*-------|-------|-------|-------*||
A||--------|-------|-------|--------||--------|-------|-------|--------||
D||--------|-------|-------|--------||--------|-------|-------|--------||


             E   E   E   E   E   E   E   E      E   E   E   E   E   E   E   E
-------||-----------------------------------|----------------------------------|
-------||-----------------------------------|----------------------------------|
-------||*----------------------------------|----------------------------------|
-------||*--12--12--12--12--12--12--12--12--|--14--14--14--14--14--14--14--14--|
-------||-----------------------------------|----------------------------------|
-------||----9---9---9---9---9---9---9---9--|--12--12--12--12--12--12--12--12--|


   E   E   E   E   E   E   E   E      E   E   E   E   E   E   E   E   4x
----------------------------------|-----------------------------------||
----------------------------------|-----------------------------------||
----------------------------------|----------------------------------*||
--19--19--19--19--19--19--19--19--|--16--16--16--17--16--14--12--14--*||
----------------------------------|-----------------------------------||
--17--17--17--17--17--17--17--17--|--14--14--14--14--14--14--14--14---||


                        Q     Q     Q     Q       Q     Q     Q     Q
-------------------||--------------------------|-------------------------|
-------------------||--------------------------|-------------------------|
-------------------||*-------------------------|-------------------------|
-------------------||*-------12----11----12----|-------12----11----12----|
-------------------||--------------------------|-------------------------|
-------------------||--------------------------|-------------------------|


  Q     Q     Q     Q        Q     Q     Q    Q     4x   E  Q    E  Q    E  E
-------------------------|--------------------------||-------------------------|
-------------------------|--------------------------||-------------------------|
-------------------------|-------------------------*||*------------------------|
-------12----11----12----|--14----12----11----7----*||*--9--9----5--5----7--7--|
-------------------------|--------------------------||---9--9----5--5----7--7--|
-------------------------|--------------------------||---9--9----5--5----7--7--|


  Q    Q    Q    Q       E  Q    E  Q    E  E      Q     Q     Q     Q     4x
----------------------|------------------------|---------------------------||
----------------------|------------------------|---------------------------||
----------------------|------------------------|--------------------------*||
--2----2----2----2----|--9--9----5--5----7--7--|--12----12----12----12----*||
--2----2----2----2----|--9--9----5--5----7--7--|--12----12----12----12-----||
--2----2----2----2----|--9--9----5--5----7--7--|--12----12----12----12-----||


--------|-------|-------|--------||-------|-------|
--------|-------|-------|--------||-------|-------|
*-------|-------|-------|-------*||-------|-------|
*-------|-------|-------|-------*||-------|-------|
--------|-------|-------|--------||-------|-------|
--------|-------|-------|--------||-------|-------|


     E   E   E   E   E   E   E   E      E   E   E   E   E   E   E   E
|-----------------------------------|----------------------------------|
|-----------------------------------|----------------------------------|
|*----------------------------------|----------------------------------|
|*--12--12--12--12--12--12--12--12--|--14--14--14--14--14--14--14--14--|
|-----------------------------------|----------------------------------|
|----9---9---9---9---9---9---9---9--|--12--12--12--12--12--12--12--12--|


   E   E   E   E   E   E   E   E      E   E   E   E   E   E   E   E   4x
----------------------------------|-----------------------------------||
----------------------------------|-----------------------------------||
----------------------------------|----------------------------------*||
--19--19--19--19--19--19--19--19--|--16--16--16--17--16--14--12--14--*||
----------------------------------|-----------------------------------||
--17--17--17--17--17--17--17--17--|--14--14--14--14--14--14--14--14---||


   E  Q    E  Q    E  E     Q    Q    Q    Q       E  Q    E  Q    E  E
-------------------------|----------------------|------------------------|
-------------------------|----------------------|------------------------|
*------------------------|----------------------|------------------------|
*--9--9----5--5----7--7--|--2----2----2----2----|--9--9----5--5----7--7--|
---9--9----5--5----7--7--|--2----2----2----2----|--9--9----5--5----7--7--|
---9--9----5--5----7--7--|--2----2----2----2----|--9--9----5--5----7--7--|


   Q     Q     Q     Q    10x
---------------------------||
---------------------------||
--------------------------*||
--12----12----12----12----*||
--12----12----12----12-----||
--12----12----12----12-----||
Tap to rate this tab
# A B C D E F G H I J K L M N O P Q R S T U V W X Y Z