Song name
# A B C D E F G H I J K L M N O P Q R S T U V W X Y Z

Misc Unsigned Bands - December Is Decay - Intermission tab

                             
                             Intermission                                   


                                                          December is Decay
Lead Guitar



      S S H.           E     S S H.           E     S S H.           E   
E||-----------------------|----------------------|----------------------|
B||-----------------------|----------------------|----------------------|
G||*------4---------------|------9---------------|------4---------------|
D||*----2-----------------|----7-----------------|----2-----------------|
A||---4-------------------|--9-------------------|--4-------------------|
E||-----------------------|----------------------|----------------------|


  S S H.           E     E.  E.  E.  E.  Q       W                 
----------------------|-----------------------|-------------------|
----------------------|-----------------------|-------------------|
------9---------------|--4---5---7---5---4----|--L----------------|
----7-----------------|--2---3---5---3---2----|--L----------------|
--9-------------------|--4---5---7---5---4----|--L----------------|
----------------------|-----------------------|-------------------|


  S S H.           E     S S H.           E     S S H.           E   
----------------------|----------------------|----------------------|
----------------------|----------------------|----------------------|
------4---------------|------5---------------|------4---------------|
----2-----------------|----3-----------------|----2-----------------|
--4-------------------|--5-------------------|--4-------------------|
----------------------|----------------------|----------------------|


  S S H.           E     E.  E.  E.  E.  Q       W                 
----------------------|-----------------------|-------------------|
----------------------|-----------------------|-------------------|
------9---------------|--4---5---6---5---4----|--L----------------|
----7-----------------|--2---3---4---3---2----|--L----------------|
--9-------------------|--4---5---6---5---4----|--L----------------|
----------------------|-----------------------|-------------------|


             TP                      TP                      TP         
  E  Q    E  Q.     E     E  Q    E  Q.     E     E  Q    E  Q.     E   
-----------------------|-----------------------|-----------------------|
-----------------------|-----------------------|-----------------------|
--4--4----9--9------L--|--4--4----7--7------L--|--4--4----5--5------L--|
--2--2----7--7------L--|--2--2----5--5------L--|--2--2----3--3------L--|
--4--4----9--9------L--|--4--4----7--7------L--|--4--4----5--5------L--|
-----------------------|-----------------------|-----------------------|


               TP                                                      
  E  Q     E   Q.     E     E.   E.  E.  E.  Q       W                 
-------------------------|------------------------|-------------------|
-------------------------|------------------------|-------------------|
--4--4----12--12------L--|--4---12---9---5---4----|--L----------------|
--2--2----10--10------L--|--2---10---7---3---2----|--L----------------|
--4--4----12--12------L--|--4---12---9---5---4----|--L----------------|
-------------------------|------------------------|-------------------|


             TP                      TP                      TP         
  E  Q    E  Q.     E     E  Q    E  Q.     E     E  Q    E  Q.     E   
-----------------------|-----------------------|-----------------------|
-----------------------|-----------------------|-----------------------|
--4--4----2--2------L--|--4--4----2--2------L--|--4--4----5--5------L--|
--2--2----0--0------L--|--2--2----0--0------L--|--2--2----3--3------L--|
--4--4----2--2------L--|--4--4----2--2------L--|--4--4----5--5------L--|
-----------------------|-----------------------|-----------------------|


               TP                                                        
  E  Q     E   Q.     E     E.   E.  E.  E.  Q       W                   
-------------------------|------------------------|--------------------||
-------------------------|------------------------|--------------------||
--4--4----12--12------L--|--4---12---9---5---4----|--L----------------*||
--2--2----10--10------L--|--2---10---7---3---2----|--L----------------*||
--4--4----12--12------L--|--4---12---9---5---4----|--L-----------------||
-------------------------|------------------------|--------------------||




Duration Legend
---------------
W - whole
H - half
Q - quarter
E - 8th
S - 16th
T - 32nd
X - 64th
. - note dotted
|-n-|  - n-tuplets


Tablature Legend
----------------
L - tied note
x - dead note
g - grace note
(n) - ghost note
> - accentuded note
NH - natural harmonic
AH - artificial harmonic
TH - tapped harmonic
SH - semi harmonic
PH - pitch harmonic
h - hammer on
p - pull off
b - bend
br - bendRelease
pb - preBend
pbr - preBendRelease
brb - bendReleaseBend
\n/ - tremolo bar dip
\n - tremolo bar dive
-/n - tremolo bar Release up
/n\ - tremolo bar inverted dip
/n - tremolo bar return
-\n - tremolo bar Release down
S - shift slide
s - legato slide
/ -  slide into from below or out of upwards
\ -  slide into from above or out of downwards
~ - vibrato
W - wide vibrato
tr - trill
TP - tremolo picking
T - tapping
S - slap
P - pop
< - fade in
^ - brush up
v - brush down
Tap to rate this tab
# A B C D E F G H I J K L M N O P Q R S T U V W X Y Z